  0
SECTION
  2
HEADER
  9
$ACADVER
  1
AC1015
  9
$ACADMAINTVER
 70
     6
  9
$DWGCODEPAGE
  3
ANSI_1254
  9
$INSBASE
 10
0.0
 20
0.0
 30
0.0
  9
$EXTMIN
 10
0.0
 20
0.0
 30
0.0
  9
$EXTMAX
 10
279.4
 20
215.9
 30
0.0
  9
$LIMMIN
 10
0.0
 20
0.0
  9
$LIMMAX
 10
279.4
 20
215.9
  9
$ORTHOMODE
 70
     0
  9
$REGENMODE
 70
     1
  9
$FILLMODE
 70
     1
  9
$QTEXTMODE
 70
     0
  9
$MIRRTEXT
 70
     1
  9
$LTSCALE
 40
1.0
  9
$ATTMODE
 70
     1
  9
$TEXTSIZE
 40
3.5
  9
$TRACEWID
 40
1.0
  9
$TEXTSTYLE
  7
Standard
  9
$CLAYER
  8
0
  9
$CELTYPE
  6
ByLayer
  9
$CECOLOR
 62
   256
  9
$CELTSCALE
 40
1.0
  9
$DISPSILH
 70
     0
  9
$DIMSCALE
 40
1.0
  9
$DIMASZ
 40
3.5
  9
$DIMEXO
 40
1.0
  9
$DIMDLI
 40
3.75
  9
$DIMRND
 40
0.0
  9
$DIMDLE
 40
0.0
  9
$DIMEXE
 40
1.0
  9
$DIMTP
 40
0.0
  9
$DIMTM
 40
0.0
  9
$DIMTXT
 40
3.5
  9
$DIMCEN
 40
2.5
  9
$DIMTSZ
 40
0.0
  9
$DIMTOL
 70
     0
  9
$DIMLIM
 70
     0
  9
$DIMTIH
 70
     1
  9
$DIMTOH
 70
     1
  9
$DIMSE1
 70
     0
  9
$DIMSE2
 70
     0
  9
$DIMTAD
 70
     1
  9
$DIMZIN
 70
     0
  9
$DIMBLK
  1

  9
$DIMASO
 70
     1
  9
$DIMSHO
 70
     1
  9
$DIMPOST
  1

  9
$DIMAPOST
  1

  9
$DIMALT
 70
     0
  9
$DIMALTD
 70
     3
  9
$DIMALTF
 40
0.0393700787
  9
$DIMLFAC
 40
1.0
  9
$DIMTOFL
 70
     1
  9
$DIMTVP
 40
0.0
  9
$DIMTIX
 70
     0
  9
$DIMSOXD
 70
     0
  9
$DIMSAH
 70
     0
  9
$DIMBLK1
  1

  9
$DIMBLK2
  1

  9
$DIMSTYLE
  2
ISO-25
  9
$DIMCLRD
 70
     0
  9
$DIMCLRE
 70
     0
  9
$DIMCLRT
 70
     0
  9
$DIMTFAC
 40
1.0
  9
$DIMGAP
 40
1.524
  9
$DIMJUST
 70
     0
  9
$DIMSD1
 70
     0
  9
$DIMSD2
 70
     0
  9
$DIMTOLJ
 70
     0
  9
$DIMTZIN
 70
     0
  9
$DIMALTZ
 70
     0
  9
$DIMALTTZ
 70
     0
  9
$DIMUPT
 70
     0
  9
$DIMDEC
 70
     2
  9
$DIMTDEC
 70
     2
  9
$DIMALTU
 70
     2
  9
$DIMALTTD
 70
     3
  9
$DIMTXSTY
  7
Standard
  9
$DIMAUNIT
 70
     0
  9
$DIMADEC
 70
     2
  9
$DIMALTRND
 40
0.0
  9
$DIMAZIN
 70
     0
  9
$DIMDSEP
 70
    44
  9
$DIMATFIT
 70
     3
  9
$DIMFRAC
 70
     0
  9
$DIMLDRBLK
  1

  9
$DIMLUNIT
 70
     2
  9
$DIMLWD
 70
    -2
  9
$DIMLWE
 70
    -2
  9
$DIMTMOVE
 70
     0
  9
$LUNITS
 70
     2
  9
$LUPREC
 70
     2
  9
$SKETCHINC
 40
1.0
  9
$FILLETRAD
 40
10.0
  9
$AUNITS
 70
     0
  9
$AUPREC
 70
     2
  9
$MENU
  1
.
  9
$ELEVATION
 40
0.0
  9
$PELEVATION
 40
0.0
  9
$THICKNESS
 40
0.0
  9
$LIMCHECK
 70
     0
  9
$CHAMFERA
 40
0.0
  9
$CHAMFERB
 40
0.0
  9
$CHAMFERC
 40
0.0
  9
$CHAMFERD
 40
0.0
  9
$SKPOLY
 70
     0
  9
$TDCREATE
 40
2459954.364371783
  9
$TDUCREATE
 40
2459954.239371783
  9
$TDUPDATE
 40
2459954.364372327
  9
$TDUUPDATE
 40
2459954.239372327
  9
$TDINDWG
 40
0.0000000116
  9
$TDUSRTIMER
 40
0.0000000116
  9
$USRTIMER
 70
     1
  9
$ANGBASE
 50
0.0
  9
$ANGDIR
 70
     0
  9
$PDMODE
 70
     0
  9
$PDSIZE
 40
-1.0
  9
$PLINEWID
 40
0.0
  9
$SPLFRAME
 70
     0
  9
$SPLINETYPE
 70
     6
  9
$SPLINESEGS
 70
     8
  9
$HANDSEED
  5
10F
  9
$SURFTAB1
 70
     6
  9
$SURFTAB2
 70
     6
  9
$SURFTYPE
 70
     6
  9
$SURFU
 70
     6
  9
$SURFV
 70
     6
  9
$UCSBASE
  2

  9
$UCSNAME
  2

  9
$UCSORG
 10
0.0
 20
0.0
 30
0.0
  9
$UCSXDIR
 10
1.0
 20
0.0
 30
0.0
  9
$UCSYDIR
 10
0.0
 20
1.0
 30
0.0
  9
$UCSORTHOREF
  2

  9
$UCSORTHOVIEW
 70
     0
  9
$UCSORGTOP
 10
0.0
 20
0.0
 30
0.0
  9
$UCSORGBOTTOM
 10
0.0
 20
0.0
 30
0.0
  9
$UCSORGLEFT
 10
0.0
 20
0.0
 30
0.0
  9
$UCSORGRIGHT
 10
0.0
 20
0.0
 30
0.0
  9
$UCSORGFRONT
 10
0.0
 20
0.0
 30
0.0
  9
$UCSORGBACK
 10
0.0
 20
0.0
 30
0.0
  9
$PUCSBASE
  2

  9
$PUCSNAME
  2

  9
$PUCSORG
 10
0.0
 20
0.0
 30
0.0
  9
$PUCSXDIR
 10
1.0
 20
0.0
 30
0.0
  9
$PUCSYDIR
 10
0.0
 20
1.0
 30
0.0
  9
$PUCSORTHOREF
  2

  9
$PUCSORTHOVIEW
 70
     0
  9
$PUCSORGTOP
 10
0.0
 20
0.0
 30
0.0
  9
$PUCSORGBOTTOM
 10
0.0
 20
0.0
 30
0.0
  9
$PUCSORGLEFT
 10
0.0
 20
0.0
 30
0.0
  9
$PUCSORGRIGHT
 10
0.0
 20
0.0
 30
0.0
  9
$PUCSORGFRONT
 10
0.0
 20
0.0
 30
0.0
  9
$PUCSORGBACK
 10
0.0
 20
0.0
 30
0.0
  9
$USERI1
 70
     0
  9
$USERI2
 70
     0
  9
$USERI3
 70
     0
  9
$USERI4
 70
     0
  9
$USERI5
 70
     0
  9
$USERR1
 40
0.0
  9
$USERR2
 40
0.0
  9
$USERR3
 40
0.0
  9
$USERR4
 40
0.0
  9
$USERR5
 40
0.0
  9
$WORLDVIEW
 70
     1
  9
$SHADEDGE
 70
     3
  9
$SHADEDIF
 70
    70
  9
$TILEMODE
 70
     1
  9
$MAXACTVP
 70
    64
  9
$PINSBASE
 10
0.0
 20
0.0
 30
0.0
  9
$PLIMCHECK
 70
     0
  9
$PEXTMIN
 10
1.0000000000E+20
 20
1.0000000000E+20
 30
1.0000000000E+20
  9
$PEXTMAX
 10
-1.0000000000E+20
 20
-1.0000000000E+20
 30
-1.0000000000E+20
  9
$PLIMMIN
 10
0.0
 20
0.0
  9
$PLIMMAX
 10
420.0
 20
297.0
  9
$UNITMODE
 70
     0
  9
$VISRETAIN
 70
     1
  9
$PLINEGEN
 70
     0
  9
$PSLTSCALE
 70
     1
  9
$TREEDEPTH
 70
  3020
  9
$CMLSTYLE
  2
Standard
  9
$CMLJUST
 70
     0
  9
$CMLSCALE
 40
20.0
  9
$PROXYGRAPHICS
 70
     1
  9
$MEASUREMENT
 70
     1
  9
$CELWEIGHT
370
    -1
  9
$ENDCAPS
280
     0
  9
$JOINSTYLE
280
     0
  9
$LWDISPLAY
290
     1
  9
$INSUNITS
 70
     4
  9
$HYPERLINKBASE
  1

  9
$STYLESHEET
  1

  9
$XEDIT
290
     1
  9
$CEPSNTYPE
380
     0
  9
$PSTYLEMODE
290
     1
  9
$FINGERPRINTGUID
  2
{1d649246-c04c-4908-95cf-46d83a285987}
  9
$VERSIONGUID
  2
{FAEB1C32-E019-11D5-929B-00C0DF256EC4}
  9
$EXTNAMES
290
     1
  9
$PSVPSCALE
 40
0.0
  9
$OLESTARTUP
290
     0
  0
ENDSEC
  0
SECTION
  2
CLASSES
  0
CLASS
  1
ACDBDICTIONARYWDFLT
  2
AcDbDictionaryWithDefault
  3
ObjectDBX Classes
 90
        0
280
     0
281
     0
  0
CLASS
  1
VISUALSTYLE
  2
AcDbVisualStyle
  3
ObjectDBX Classes
 90
     4095
280
     0
281
     0
  0
CLASS
  1
MATERIAL
  2
AcDbMaterial
  3
ObjectDBX Classes
 90
     1153
280
     0
281
     0
  0
CLASS
  1
SCALE
  2
AcDbScale
  3
ObjectDBX Classes
 90
     1153
280
     0
281
     0
  0
CLASS
  1
TABLESTYLE
  2
AcDbTableStyle
  3
ObjectDBX Classes
 90
     4095
280
     0
281
     0
  0
CLASS
  1
MLEADERSTYLE
  2
AcDbMLeaderStyle
  3
ACDB_MLEADERSTYLE_CLASS
 90
     4095
280
     0
281
     0
  0
CLASS
  1
SUN
  2
AcDbSun
  3
SCENEOE
 90
     1153
280
     0
281
     0
  0
CLASS
  1
ACDBPLACEHOLDER
  2
AcDbPlaceHolder
  3
ObjectDBX Classes
 90
        0
280
     0
281
     0
  0
CLASS
  1
LAYOUT
  2
AcDbLayout
  3
ObjectDBX Classes
 90
        0
280
     0
281
     0
  0
ENDSEC
  0
SECTION
  2
TABLES
  0
TABLE
  2
VPORT
  5
8
330
0
100
AcDbSymbolTable
 70
     1
  0
VPORT
  5
29
330
8
100
AcDbSymbolTableRecord
100
AcDbViewportTableRecord
  2
*Active
 70
     0
 10
0.0
 20
0.0
 11
1.0
 21
1.0
 12
139.7
 22
107.95
 13
0.0
 23
0.0
 14
10.0
 24
10.0
 15
10.0
 25
10.0
 16
0.0
 26
0.0
 36
1.0
 17
0.0
 27
0.0
 37
0.0
 40
215.9
 41
1.2941176471
 42
50.0
 43
0.0
 44
0.0
 50
0.0
 51
0.0
 71
     0
 72
  2000
 73
     1
 74
     3
 75
     0
 76
     0
 77
     0
 78
     0
281
     0
 65
     1
110
0.0
120
0.0
130
0.0
111
1.0
121
0.0
131
0.0
112
0.0
122
1.0
132
0.0
 79
     0
146
0.0
  0
ENDTAB
  0
TABLE
  2
LTYPE
  5
5
330
0
100
AcDbSymbolTable
 70
     6
  0
LTYPE
  5
14
330
5
100
AcDbSymbolTableRecord
100
AcDbLinetypeTableRecord
  2
ByBlock
 70
     0
  3

 72
    65
 73
     0
 40
0.0
  0
LTYPE
  5
15
330
5
100
AcDbSymbolTableRecord
100
AcDbLinetypeTableRecord
  2
ByLayer
 70
     0
  3

 72
    65
 73
     0
 40
0.0
  0
LTYPE
  5
16
330
5
100
AcDbSymbolTableRecord
100
AcDbLinetypeTableRecord
  2
Continuous
 70
     0
  3
Solid line
 72
    65
 73
     0
 40
0.0
  0
LTYPE
  5
6E
330
5
100
AcDbSymbolTableRecord
100
AcDbLinetypeTableRecord
  2
HIDDEN
 70
     0
  3
Hidden __ __ __ __ __ __ __ __ __ __ __ __ __ __
 72
    65
 73
     2
 40
1.905
 49
1.27
 74
     0
 49
-0.635
 74
     0
  0
LTYPE
  5
6F
330
5
100
AcDbSymbolTableRecord
100
AcDbLinetypeTableRecord
  2
PHANTOM
 70
     0
  3
Phantom ______  __  __  ______  __  __  ______
 72
    65
 73
     6
 40
12.7
 49
6.35
 74
     0
 49
-1.27
 74
     0
 49
1.27
 74
     0
 49
-1.27
 74
     0
 49
1.27
 74
     0
 49
-1.27
 74
     0
  0
LTYPE
  5
70
330
5
100
AcDbSymbolTableRecord
100
AcDbLinetypeTableRecord
  2
CENTER
 70
     0
  3
Center ____ _ ____ _ ____ _ ____ _ ____ _ ____
 72
    65
 73
     4
 40
10.16
 49
6.35
 74
     0
 49
-1.27
 74
     0
 49
1.27
 74
     0
 49
-1.27
 74
     0
  0
LTYPE
  5
71
330
5
100
AcDbSymbolTableRecord
100
AcDbLinetypeTableRecord
  2
CENTERX2
 70
     0
  3
Center (2x) ________  __  ________  __  _____
 72
    65
 73
     4
 40
20.32
 49
12.7
 74
     0
 49
-2.54
 74
     0
 49
2.54
 74
     0
 49
-2.54
 74
     0
  0
LTYPE
  5
72
330
5
100
AcDbSymbolTableRecord
100
AcDbLinetypeTableRecord
  2
DOT2
 70
     0
  3
Dot (.5x) ........................................
 72
    65
 73
     2
 40
0.635
 49
0.0
 74
     0
 49
-0.635
 74
     0
  0
ENDTAB
  0
TABLE
  2
LAYER
  5
2
330
0
100
AcDbSymbolTable
 70
    17
  0
LAYER
  5
10
330
2
100
AcDbSymbolTableRecord
100
AcDbLayerTableRecord
  2
0
 70
     0
 62
     7
  6
Continuous
370
    -3
390
F
  0
LAYER
  5
73
330
2
100
AcDbSymbolTableRecord
100
AcDbLayerTableRecord
  2
FORMAT
 70
     0
 62
     7
  6
Continuous
370
    -3
390
F
  0
LAYER
  5
74
330
2
100
AcDbSymbolTableRecord
100
AcDbLayerTableRecord
  2
YARDIMCI_GEOMETRI
 70
     0
 62
    -6
  6
Continuous
290
     0
370
    -3
390
F
  0
LAYER
  5
75
330
2
100
AcDbSymbolTableRecord
100
AcDbLayerTableRecord
  2
SAYFA_CERCEVESI
 70
     0
 62
     7
  6
Continuous
370
    25
390
F
  0
LAYER
  5
76
330
2
100
AcDbSymbolTableRecord
100
AcDbLayerTableRecord
  2
ANTET
 70
     0
 62
     7
  6
Continuous
370
    -3
390
F
  0
LAYER
  5
77
330
2
100
AcDbSymbolTableRecord
100
AcDbLayerTableRecord
  2
OLCU
 70
     0
 62
   150
  6
Continuous
370
    -3
390
F
  0
LAYER
  5
78
330
2
100
AcDbSymbolTableRecord
100
AcDbLayerTableRecord
  2
METIN
 70
     0
 62
    96
  6
Continuous
370
    -3
390
F
  0
LAYER
  5
79
330
2
100
AcDbSymbolTableRecord
100
AcDbLayerTableRecord
  2
BALON
 70
     0
 62
     5
  6
Continuous
370
    -3
390
F
  0
LAYER
  5
7A
330
2
100
AcDbSymbolTableRecord
100
AcDbLayerTableRecord
  2
VURGU
 70
     0
 62
     7
  6
Continuous
370
    -3
390
F
  0
LAYER
  5
7B
330
2
100
AcDbSymbolTableRecord
100
AcDbLayerTableRecord
  2
SILIK
 70
     0
 62
     7
  6
Continuous
370
    -3
390
F
  0
LAYER
  5
7C
330
2
100
AcDbSymbolTableRecord
100
AcDbLayerTableRecord
  2
MODEL
 70
     0
 62
     7
  6
Continuous
370
    -3
390
F
  0
LAYER
  5
7D
330
2
100
AcDbSymbolTableRecord
100
AcDbLayerTableRecord
  2
DETAYLANDıRMA
 70
     0
 62
   190
  6
Continuous
370
    -3
390
F
  0
LAYER
  5
7E
330
2
100
AcDbSymbolTableRecord
100
AcDbLayerTableRecord
  2
TOLERANS
 70
     0
 62
   230
  6
Continuous
370
    -3
390
F
  0
LAYER
  5
7F
330
2
100
AcDbSymbolTableRecord
100
AcDbLayerTableRecord
  2
MERKEZ_CIZGILERI
 70
     0
 62
    30
  6
Continuous
370
    -3
390
F
  0
LAYER
  5
80
330
2
100
AcDbSymbolTableRecord
100
AcDbLayerTableRecord
  2
KESIT-DETAY_CIZGILERI
 70
     0
 62
     7
  6
Continuous
370
    -3
390
F
  0
LAYER
  5
81
330
2
100
AcDbSymbolTableRecord
100
AcDbLayerTableRecord
  2
\U+041E\U+0421\U+0415\U+0412\U+042B\U+0415
 70
     0
 62
     7
  6
Continuous
370
    -3
390
F
  0
LAYER
  5
82
330
2
100
AcDbSymbolTableRecord
100
AcDbLayerTableRecord
  2
\U+0412\U+041E\U+0414\U+042F\U+041D\U+042B\U+0415_\U+0417\U+041D\U+0410\U+041A\U+0418
 70
     0
 62
    11
  6
Continuous
370
    -3
390
F
  0
ENDTAB
  0
TABLE
  2
STYLE
  5
3
330
0
100
AcDbSymbolTable
 70
     1
  0
STYLE
  5
11
330
3
100
AcDbSymbolTableRecord
100
AcDbTextStyleTableRecord
  2
Standard
 70
     0
 40
0.0
 41
1.0
 50
0.0
 71
     0
 42
3.5
  3
txt
  4

  0
ENDTAB
  0
TABLE
  2
VIEW
  5
6
330
0
100
AcDbSymbolTable
 70
     0
  0
ENDTAB
  0
TABLE
  2
UCS
  5
7
330
0
100
AcDbSymbolTable
 70
     0
  0
ENDTAB
  0
TABLE
  2
APPID
  5
9
330
0
100
AcDbSymbolTable
 70
     1
  0
APPID
  5
12
330
9
100
AcDbSymbolTableRecord
100
AcDbRegAppTableRecord
  2
ACAD
 70
     0
  0
ENDTAB
  0
TABLE
  2
DIMSTYLE
  5
A
330
0
100
AcDbSymbolTable
 70
     1
100
AcDbDimStyleTable
  0
DIMSTYLE
105
27
330
A
100
AcDbSymbolTableRecord
100
AcDbDimStyleTableRecord
  2
ISO-25
 70
     0
 41
2.5
 42
0.625
 43
3.75
 44
1.25
 73
     0
 74
     0
 77
     1
 78
     8
140
2.5
141
2.5
143
0.0393700787
147
0.625
171
     3
172
     1
178
     0
271
     2
272
     2
274
     3
278
    44
283
     0
284
     8
340
11
  0
ENDTAB
  0
TABLE
  2
BLOCK_RECORD
  5
1
330
0
100
AcDbSymbolTable
 70
     4
  0
BLOCK_RECORD
  5
1F
330
1
100
AcDbSymbolTableRecord
100
AcDbBlockTableRecord
  2
*Model_Space
340
22
  0
BLOCK_RECORD
  5
1B
330
1
100
AcDbSymbolTableRecord
100
AcDbBlockTableRecord
  2
*Paper_Space
340
1E
  0
BLOCK_RECORD
  5
23
330
1
100
AcDbSymbolTableRecord
100
AcDbBlockTableRecord
  2
*Paper_Space0
340
26
  0
BLOCK_RECORD
  5
8C
330
1
100
AcDbSymbolTableRecord
100
AcDbBlockTableRecord
  2
SW_CENTERMARKSYMBOL_0
340
0
102
{BLKREFS
331
97
102
}
  0
BLOCK_RECORD
  5
DE
330
1
100
AcDbSymbolTableRecord
100
AcDbBlockTableRecord
  2
SW_CENTERMARKSYMBOL_1
340
0
102
{BLKREFS
331
E9
102
}
  0
BLOCK_RECORD
  5
EA
330
1
100
AcDbSymbolTableRecord
100
AcDbBlockTableRecord
  2
SW_CENTERMARKSYMBOL_2
340
0
102
{BLKREFS
331
F5
102
}
  0
ENDTAB
  0
ENDSEC
  0
SECTION
  2
BLOCKS
  0
BLOCK
  5
20
330
1F
100
AcDbEntity
  8
0
100
AcDbBlockBegin
  2
*Model_Space
 70
     0
 10
0.0
 20
0.0
 30
0.0
  3
*Model_Space
  1

  0
ENDBLK
  5
21
330
1F
100
AcDbEntity
  8
0
100
AcDbBlockEnd
  0
BLOCK
  5
1C
330
1B
100
AcDbEntity
 67
     1
  8
0
100
AcDbBlockBegin
  2
*Paper_Space
 70
     0
 10
0.0
 20
0.0
 30
0.0
  3
*Paper_Space
  1

  0
ENDBLK
  5
1D
330
1B
100
AcDbEntity
 67
     1
  8
0
100
AcDbBlockEnd
  0
BLOCK
  5
24
330
23
100
AcDbEntity
  8
0
100
AcDbBlockBegin
  2
*Paper_Space0
 70
     0
 10
0.0
 20
0.0
 30
0.0
  3
*Paper_Space0
  1

  0
ENDBLK
  5
25
330
23
100
AcDbEntity
  8
0
100
AcDbBlockEnd
  0
BLOCK
  5
8D
330
8C
100
AcDbEntity
  8
0
100
AcDbBlockBegin
  2
SW_CENTERMARKSYMBOL_0
 70
     0
 10
0.0
 20
0.0
 30
0.0
  3
SW_CENTERMARKSYMBOL_0
  1

  0
LINE
  5
8F
330
8C
100
AcDbEntity
  8
FORMAT
 62
     0
100
AcDbLine
 10
0.0
 20
0.0
 30
0.0
 11
0.0
 21
2.5
 31
0.0
  0
LINE
  5
90
330
8C
100
AcDbEntity
  8
FORMAT
 62
     0
100
AcDbLine
 10
0.0
 20
0.0
 30
0.0
 11
-2.5
 21
0.0
 31
0.0
  0
LINE
  5
91
330
8C
100
AcDbEntity
  8
FORMAT
 62
     0
100
AcDbLine
 10
0.0
 20
0.0
 30
0.0
 11
0.0
 21
-2.5
 31
0.0
  0
LINE
  5
92
330
8C
100
AcDbEntity
  8
FORMAT
 62
     0
100
AcDbLine
 10
0.0
 20
0.0
 30
0.0
 11
2.5
 21
0.0
 31
0.0
  0
LINE
  5
93
330
8C
100
AcDbEntity
  8
FORMAT
 62
     0
100
AcDbLine
 10
0.0
 20
5.0
 30
0.0
 11
0.0
 21
34.2
 31
0.0
  0
LINE
  5
94
330
8C
100
AcDbEntity
  8
FORMAT
 62
     0
100
AcDbLine
 10
-5.0
 20
0.0
 30
0.0
 11
-34.2
 21
0.0
 31
0.0
  0
LINE
  5
95
330
8C
100
AcDbEntity
  8
FORMAT
 62
     0
100
AcDbLine
 10
0.0
 20
-5.0
 30
0.0
 11
0.0
 21
-34.2
 31
0.0
  0
LINE
  5
96
330
8C
100
AcDbEntity
  8
FORMAT
 62
     0
100
AcDbLine
 10
5.0
 20
0.0
 30
0.0
 11
34.2
 21
0.0
 31
0.0
  0
ENDBLK
  5
8E
330
8C
100
AcDbEntity
  8
0
100
AcDbBlockEnd
  0
BLOCK
  5
DF
330
DE
100
AcDbEntity
  8
0
100
AcDbBlockBegin
  2
SW_CENTERMARKSYMBOL_1
 70
     0
 10
0.0
 20
0.0
 30
0.0
  3
SW_CENTERMARKSYMBOL_1
  1

  0
LINE
  5
E1
330
DE
100
AcDbEntity
  8
FORMAT
 62
     0
100
AcDbLine
 10
0.0
 20
0.0
 30
0.0
 11
0.0
 21
2.5
 31
0.0
  0
LINE
  5
E2
330
DE
100
AcDbEntity
  8
FORMAT
 62
     0
100
AcDbLine
 10
0.0
 20
0.0
 30
0.0
 11
-2.5
 21
0.0
 31
0.0
  0
LINE
  5
E3
330
DE
100
AcDbEntity
  8
FORMAT
 62
     0
100
AcDbLine
 10
0.0
 20
0.0
 30
0.0
 11
0.0
 21
-2.5
 31
0.0
  0
LINE
  5
E4
330
DE
100
AcDbEntity
  8
FORMAT
 62
     0
100
AcDbLine
 10
0.0
 20
0.0
 30
0.0
 11
2.5
 21
0.0
 31
0.0
  0
LINE
  5
E5
330
DE
100
AcDbEntity
  8
FORMAT
 62
     0
100
AcDbLine
 10
0.0
 20
5.0
 30
0.0
 11
0.0
 21
9.5
 31
0.0
  0
LINE
  5
E6
330
DE
100
AcDbEntity
  8
FORMAT
 62
     0
100
AcDbLine
 10
-5.0
 20
0.0
 30
0.0
 11
-9.5
 21
0.0
 31
0.0
  0
LINE
  5
E7
330
DE
100
AcDbEntity
  8
FORMAT
 62
     0
100
AcDbLine
 10
0.0
 20
-5.0
 30
0.0
 11
0.0
 21
-9.5
 31
0.0
  0
LINE
  5
E8
330
DE
100
AcDbEntity
  8
FORMAT
 62
     0
100
AcDbLine
 10
5.0
 20
0.0
 30
0.0
 11
9.5
 21
0.0
 31
0.0
  0
ENDBLK
  5
E0
330
DE
100
AcDbEntity
  8
0
100
AcDbBlockEnd
  0
BLOCK
  5
EB
330
EA
100
AcDbEntity
  8
0
100
AcDbBlockBegin
  2
SW_CENTERMARKSYMBOL_2
 70
     0
 10
0.0
 20
0.0
 30
0.0
  3
SW_CENTERMARKSYMBOL_2
  1

  0
LINE
  5
ED
330
EA
100
AcDbEntity
  8
FORMAT
 62
     0
100
AcDbLine
 10
0.0
 20
0.0
 30
0.0
 11
0.0
 21
2.5
 31
0.0
  0
LINE
  5
EE
330
EA
100
AcDbEntity
  8
FORMAT
 62
     0
100
AcDbLine
 10
0.0
 20
0.0
 30
0.0
 11
-2.5
 21
0.0
 31
0.0
  0
LINE
  5
EF
330
EA
100
AcDbEntity
  8
FORMAT
 62
     0
100
AcDbLine
 10
0.0
 20
0.0
 30
0.0
 11
0.0
 21
-2.5
 31
0.0
  0
LINE
  5
F0
330
EA
100
AcDbEntity
  8
FORMAT
 62
     0
100
AcDbLine
 10
0.0
 20
0.0
 30
0.0
 11
2.5
 21
0.0
 31
0.0
  0
LINE
  5
F1
330
EA
100
AcDbEntity
  8
FORMAT
 62
     0
100
AcDbLine
 10
0.0
 20
5.0
 30
0.0
 11
0.0
 21
9.5
 31
0.0
  0
LINE
  5
F2
330
EA
100
AcDbEntity
  8
FORMAT
 62
     0
100
AcDbLine
 10
-5.0
 20
0.0
 30
0.0
 11
-9.5
 21
0.0
 31
0.0
  0
LINE
  5
F3
330
EA
100
AcDbEntity
  8
FORMAT
 62
     0
100
AcDbLine
 10
0.0
 20
-5.0
 30
0.0
 11
0.0
 21
-9.5
 31
0.0
  0
LINE
  5
F4
330
EA
100
AcDbEntity
  8
FORMAT
 62
     0
100
AcDbLine
 10
5.0
 20
0.0
 30
0.0
 11
9.5
 21
0.0
 31
0.0
  0
ENDBLK
  5
EC
330
EA
100
AcDbEntity
  8
0
100
AcDbBlockEnd
  0
ENDSEC
  0
SECTION
  2
ENTITIES
  0
LINE
  5
83
330
1F
100
AcDbEntity
  8
0
  6
Continuous
 62
     7
370
    25
100
AcDbLine
 10
137.6070913462
 20
135.5393645125
 30
0.0
 11
137.6070913462
 21
149.3949519231
 31
0.0
  0
LINE
  5
84
330
1F
100
AcDbEntity
  8
0
  6
Continuous
 62
     7
370
    25
100
AcDbLine
 10
123.6070913462
 20
149.3949519231
 30
0.0
 11
123.6070913462
 21
135.5377396311
 31
0.0
  0
CIRCLE
  5
85
330
1F
100
AcDbEntity
  8
0
  6
Continuous
 62
     7
370
    25
100
AcDbCircle
 10
130.6070913462
 20
95.8949519231
 30
0.0
 40
39.75
  0
ARC
  5
86
330
1F
100
AcDbEntity
  8
0
  6
Continuous
 62
     7
370
    25
100
AcDbCircle
 10
130.6070913462
 20
95.8949519231
 30
0.0
 40
40.75000000000006
100
AcDbArc
 50
99.891278213
 51
180.0
  0
ARC
  5
87
330
1F
100
AcDbEntity
  8
0
  6
Continuous
 62
     7
370
    25
100
AcDbCircle
 10
130.6070913462
 20
95.8949519231
 30
0.0
 40
40.75000000000006
100
AcDbArc
 50
180.0
 51
80.108721787
  0
SPLINE
  5
88
330
1F
100
AcDbEntity
  8
0
  6
Continuous
 62
     7
370
    25
100
AcDbSpline
210
0.0
220
0.0
230
1.0
 70
     8
 71
     3
 72
    22
 73
    18
 74
     0
 42
0.00000001
 43
0.00000001
 40
0.0
 40
0.0
 40
0.0
 40
0.0
 40
0.0712537827827151
 40
0.1425065281212205
 40
0.2137776638852088
 40
0.2850460017299871
 40
0.3559318737631876
 40
0.4268183081813691
 40
0.4974003361310217
 40
0.5679851712246377
 40
0.6389963184090679
 40
0.7100073265137199
 40
0.7814101342241958
 40
0.8528090744721694
 40
0.9237482033973471
 40
0.994686077411465
 40
1.0
 40
1.0
 40
1.0
 40
1.0
 10
135.6169036691077
 20
135.6510094867249
 30
0.0
 10
135.3281872930671
 20
135.6745775955597
 30
0.0
 10
134.7507587446524
 20
135.7217134700812
 30
0.0
 10
133.7303973143574
 20
135.7894593040822
 30
0.0
 10
132.6291596343392
 20
135.8420304114521
 30
0.0
 10
131.4700579394526
 20
135.8742376001259
 30
0.0
 10
130.2885081235438
 20
135.879757657447
 30
0.0
 10
129.1194940354105
 20
135.8602305872819
 30
0.0
 10
127.9954570852431
 20
135.8163350084021
 30
0.0
 10
126.9429221807192
 20
135.7556376098141
 30
0.0
 10
125.9935786158229
 20
135.6850067080716
 30
0.0
 10
125.1676873797083
 20
135.6145992209604
 30
0.0
 10
124.498780677164
 20
135.5555550808367
 30
0.0
 10
123.9941828931335
 20
135.5155008588264
 30
0.0
 10
123.7032616384277
 20
135.5084105265562
 30
0.0
 10
123.5795036536725
 20
135.5161189974864
 30
0.0
 10
123.6116620515025
 20
135.5363310690712
 30
0.0
 10
123.613903142785
 20
135.5377396310795
 30
0.0
  0
SPLINE
  5
89
330
1F
100
AcDbEntity
  8
0
  6
Continuous
 62
     7
370
    25
100
AcDbSpline
210
0.0
220
0.0
230
1.0
 70
     8
 71
     3
 72
    12
 73
     8
 74
     0
 42
0.00000001
 43
0.00000001
 40
0.0
 40
0.0
 40
0.0
 40
0.0
 40
0.0421296375047796
 40
0.2601293388734925
 40
0.4755443818473194
 40
0.6909698772425286
 40
1.0
 40
1.0
 40
1.0
 40
1.0
 10
137.5910334275007
 20
135.5393645125293
 30
0.0
 10
137.5958072130023
 20
135.5359029030461
 30
0.0
 10
137.6252829393557
 20
135.5145292041575
 30
0.0
 10
137.4895596906964
 20
135.5069348369116
 30
0.0
 10
137.168909605669
 20
135.5193394301356
 30
0.0
 10
136.5938285662269
 20
135.5657981333014
 30
0.0
 10
135.9791164893917
 20
135.6194158148523
 30
0.0
 10
135.6169036691077
 20
135.6510094867249
 30
0.0
  0
CIRCLE
  5
8A
330
1F
100
AcDbEntity
  8
0
  6
Continuous
 62
     7
370
    25
100
AcDbCircle
 10
130.6070913462
 20
95.8949519231
 30
0.0
 40
31.69999999999999
  0
LINE
  5
8B
330
1F
100
AcDbEntity
  8
0
  6
Continuous
 62
     7
370
    25
100
AcDbLine
 10
137.6070913462
 20
149.3949519231
 30
0.0
 11
123.6070913462
 21
149.3949519231
 31
0.0
  0
INSERT
  5
97
330
1F
100
AcDbEntity
  8
FORMAT
 62
     7
100
AcDbBlockReference
  2
SW_CENTERMARKSYMBOL_0
 10
130.6070913462
 20
95.8949519231
 30
0.0
  0
ARC
  5
98
330
1F
100
AcDbEntity
  8
0
  6
Continuous
 62
     7
370
    25
100
AcDbCircle
 10
270.2309135805
 20
-683.9800480769
 30
0.0
 40
820.6249999999989
100
AcDbArc
 50
92.4776264603
 51
92.8288464228
  0
ARC
  5
99
330
1F
100
AcDbEntity
  8
0
  6
Continuous
 62
     7
370
    25
100
AcDbCircle
 10
270.2309135805
 20
-683.9800480769
 30
0.0
 40
820.6249999999989
100
AcDbArc
 50
90.0
 51
91.5022030125
  0
ARC
  5
9A
330
1F
100
AcDbEntity
  8
0
  6
Continuous
 62
     7
370
    25
100
AcDbCircle
 10
270.2309135805
 20
875.7699519231
 30
0.0
 40
820.6249999999987
100
AcDbArc
 50
267.1711535772
 51
270.0
  0
LINE
  5
9B
330
1F
100
AcDbEntity
  8
0
  6
Continuous
 62
     7
370
    25
100
AcDbLine
 10
270.2309135805
 20
55.1449519231
 30
0.0
 11
295.2309135805
 21
55.1449519231
 31
0.0
  0
LINE
  5
9C
330
1F
100
AcDbEntity
  8
0
  6
Continuous
 62
     7
370
    25
100
AcDbLine
 10
295.2309135805
 20
136.6449519231
 30
0.0
 11
270.2309135805
 21
136.6449519231
 31
0.0
  0
ARC
  5
9D
330
1F
100
AcDbEntity
  8
0
  6
Continuous
 62
     7
370
    25
100
AcDbCircle
 10
295.2309135805
 20
-683.9800480769
 30
0.0
 40
820.624999999999
100
AcDbArc
 50
88.496947674
 51
90.0
  0
ARC
  5
9E
330
1F
100
AcDbEntity
  8
0
  6
Continuous
 62
     7
370
    25
100
AcDbCircle
 10
295.2309135805
 20
-683.9800480769
 30
0.0
 40
820.6249999999989
100
AcDbArc
 50
87.1711535772
 51
87.5219102727
  0
ARC
  5
9F
330
1F
100
AcDbEntity
  8
0
  6
Continuous
 62
     7
370
    25
100
AcDbCircle
 10
295.2309135805
 20
875.7699519231
 30
0.0
 40
820.6249999999987
100
AcDbArc
 50
270.0
 51
272.8288464228
  0
LINE
  5
A0
330
1F
100
AcDbEntity
  8
0
  6
Continuous
 62
     7
370
    25
100
AcDbLine
 10
248.7309135805
 20
136.3607137406
 30
0.0
 11
248.7309135805
 21
149.3949519231
 31
0.0
  0
LINE
  5
A1
330
1F
100
AcDbEntity
  8
0
  6
Continuous
 62
     7
370
    25
100
AcDbLine
 10
234.7309135805
 20
149.3949519231
 30
0.0
 11
234.7309135805
 21
135.8734268118
 31
0.0
  0
LINE
  5
A2
330
1F
100
AcDbEntity
  8
0
  6
Continuous
 62
     7
370
    25
100
AcDbLine
 10
330.7309135805
 20
135.8743172086
 30
0.0
 11
330.7309135805
 21
149.3949519231
 31
0.0
  0
LINE
  5
A3
330
1F
100
AcDbEntity
  8
0
  6
Continuous
 62
     7
370
    25
100
AcDbLine
 10
316.7309135805
 20
149.3949519231
 30
0.0
 11
316.7309135805
 21
136.3582815812
 31
0.0
  0
LINE
  5
A4
330
1F
100
AcDbEntity
  8
0
  6
Continuous
 62
     7
370
    25
100
AcDbLine
 10
229.7309135805
 20
95.8949519231
 30
0.0
 11
229.7309135805
 21
135.6449519231
 31
0.0
  0
LINE
  5
A5
330
1F
100
AcDbEntity
  8
0
  6
Continuous
 62
     7
370
    25
100
AcDbLine
 10
229.7309135805
 20
56.1449519231
 30
0.0
 11
229.7309135805
 21
95.8949519231
 31
0.0
  0
SPLINE
  5
A6
330
1F
100
AcDbEntity
  8
0
  6
Continuous
 62
     7
370
    25
100
AcDbSpline
210
0.0
220
0.0
230
1.0
 70
     8
 71
     3
 72
    27
 73
    23
 74
     0
 42
0.00000001
 43
0.00000001
 40
0.0
 40
0.0
 40
0.0
 40
0.0
 40
0.0084917737572621
 40
0.0623302105897846
 40
0.1141813924525226
 40
0.1675064300970825
 40
0.2199270567981522
 40
0.2738199851548947
 40
0.3270776111718642
 40
0.3818756683028249
 40
0.4351497355982212
 40
0.4900116441793433
 40
0.5425423642225986
 40
0.5966212586416941
 40
0.6487645430639761
 40
0.7023987634881945
 40
0.7549390304215041
 40
0.8089771546324607
 40
0.8619487668292992
 40
0.9164655699545254
 40
0.9692537997565416
 40
1.0
 40
1.0
 40
1.0
 40
1.0
 10
248.7180320628009
 20
136.3607008655792
 30
0.0
 10
248.722132140677
 20
136.3615148503123
 30
0.0
 10
248.7522269977418
 20
136.3674895549239
 30
0.0
 10
248.6203798227303
 20
136.3411872301186
 30
0.0
 10
248.3134931882837
 20
136.2815006659956
 30
0.0
 10
247.8134263444095
 20
136.1887295891819
 30
0.0
 10
247.1450362169344
 20
136.0738143049284
 30
0.0
 10
246.3264508403847
 20
135.9471006692884
 30
0.0
 10
245.3664161693333
 20
135.8185258047186
 30
0.0
 10
244.305153072207
 20
135.7017989489374
 30
0.0
 10
243.1578774293959
 20
135.6059157206425
 30
0.0
 10
241.9832821048806
 20
135.5406470890649
 30
0.0
 10
240.794989153051
 20
135.5086145547989
 30
0.0
 10
239.6518249555298
 20
135.5101078120603
 30
0.0
 10
238.5599615305175
 20
135.5411115715701
 30
0.0
 10
237.5663604172083
 20
135.5943659028196
 30
0.0
 10
236.6780508642842
 20
135.6621072880333
 30
0.0
 10
235.9349606149086
 20
135.7333361457245
 30
0.0
 10
235.3446600508728
 20
135.799328202328
 30
0.0
 10
234.9486320926448
 20
135.8482245770731
 30
0.0
 10
234.7430617730528
 20
135.8751240524292
 30
0.0
 10
234.752565050174
 20
135.873883024013
 30
0.0
 10
234.7560628852725
 20
135.8734262433996
 30
0.0
  0
LINE
  5
A7
330
1F
100
AcDbEntity
  8
0
  6
Continuous
 62
     7
370
    25
100
AcDbLine
 10
335.7309135805
 20
95.8949519231
 30
0.0
 11
335.7309135805
 21
135.6449519231
 31
0.0
  0
LINE
  5
A8
330
1F
100
AcDbEntity
  8
0
  6
Continuous
 62
     7
370
    25
100
AcDbLine
 10
335.7309135805
 20
56.1449519231
 30
0.0
 11
335.7309135805
 21
95.8949519231
 31
0.0
  0
SPLINE
  5
A9
330
1F
100
AcDbEntity
  8
0
  6
Continuous
 62
     7
370
    25
100
AcDbSpline
210
0.0
220
0.0
230
1.0
 70
     8
 71
     3
 72
    27
 73
    23
 74
     0
 42
0.00000001
 43
0.00000001
 40
0.0
 40
0.0
 40
0.0
 40
0.0
 40
0.0136626441862649
 40
0.0678073277916541
 40
0.1202031118276475
 40
0.1741012289445352
 40
0.2268142864782786
 40
0.2810389882079845
 40
0.3340240568065065
 40
0.388564139883295
 40
0.4412010261087688
 40
0.4953933115797829
 40
0.547555571622527
 40
0.6012188216372526
 40
0.6536308703282793
 40
0.7075203724212774
 40
0.7606871981313854
 40
0.8153827603739473
 40
0.8687248924568585
 40
0.9236570438375327
 40
0.9762320024798321
 40
1.0
 40
1.0
 40
1.0
 40
1.0
 10
330.7124775644906
 20
135.8743117694518
 30
0.0
 10
330.7179727300376
 20
135.875033184116
 30
0.0
 10
330.7452450856982
 20
135.8786135452776
 30
0.0
 10
330.5976000493704
 20
135.8591290968677
 30
0.0
 10
330.2651435442616
 20
135.81720843351
 30
0.0
 10
329.7390591457153
 20
135.7560932907635
 30
0.0
 10
329.0423700582691
 20
135.6854100952477
 30
0.0
 10
328.199062974984
 20
135.6153110856832
 30
0.0
 10
327.2190069603375
 20
135.5554030154923
 30
0.0
 10
326.1483867290432
 20
135.5165104830945
 30
0.0
 10
325.0008511047873
 20
135.5057403740109
 30
0.0
 10
323.8342244791754
 20
135.5275560202399
 30
0.0
 10
322.6589975657993
 20
135.5828806483793
 30
0.0
 10
321.5276409163602
 20
135.6675422134908
 30
0.0
 10
320.4474969596753
 20
135.7769599917069
 30
0.0
 10
319.4624858684594
 20
135.9008882193203
 30
0.0
 10
318.5840943654568
 20
136.0306460973136
 30
0.0
 10
317.8543502614817
 20
136.1521647010136
 30
0.0
 10
317.2816053342581
 20
136.2561664864534
 30
0.0
 10
316.9110612990434
 20
136.3274418130171
 30
0.0
 10
316.7315342227766
 20
136.3631312555488
 30
0.0
 10
316.7501467234962
 20
136.359432415851
 30
0.0
 10
316.755941388691
 20
136.3582808490636
 30
0.0
  0
LINE
  5
AA
330
1F
100
AcDbEntity
  8
0
  6
Continuous
 62
     7
370
    25
100
AcDbLine
 10
248.7309135805
 20
149.3949519231
 30
0.0
 11
234.7309135805
 21
149.3949519231
 31
0.0
  0
LINE
  5
AB
330
1F
100
AcDbEntity
  8
0
  6
Continuous
 62
     7
370
    25
100
AcDbLine
 10
330.7309135805
 20
149.3949519231
 30
0.0
 11
316.7309135805
 21
149.3949519231
 31
0.0
  0
LINE
  5
AC
330
1F
100
AcDbEntity
  8
0
  6
Continuous
 62
     1
370
    25
100
AcDbLine
 10
270.2309135805
 20
95.8949519231
 30
0.0
 11
270.2309135805
 21
136.6449519231
 31
0.0
  0
LINE
  5
AD
330
1F
100
AcDbEntity
  8
0
  6
Continuous
 62
     1
370
    25
100
AcDbLine
 10
270.2309135805
 20
55.1449519231
 30
0.0
 11
270.2309135805
 21
95.8949519231
 31
0.0
  0
LINE
  5
AE
330
1F
100
AcDbEntity
  8
0
  6
Continuous
 62
     1
370
    25
100
AcDbLine
 10
295.2309135805
 20
95.8949519231
 30
0.0
 11
295.2309135805
 21
136.6449519231
 31
0.0
  0
LINE
  5
AF
330
1F
100
AcDbEntity
  8
0
  6
Continuous
 62
     1
370
    25
100
AcDbLine
 10
295.2309135805
 20
55.1449519231
 30
0.0
 11
295.2309135805
 21
95.8949519231
 31
0.0
  0
ARC
  5
B0
330
1F
100
AcDbEntity
  8
0
  6
Continuous
 62
     7
370
    25
100
AcDbCircle
 10
910.4820913462
 20
252.2957926569
 30
0.0
 40
820.6249999999989
100
AcDbArc
 50
180.0
 51
182.8288464228
  0
ARC
  5
B1
330
1F
100
AcDbEntity
  8
0
  6
Continuous
 62
     7
370
    25
100
AcDbCircle
 10
-649.2679086538
 20
252.2957926569
 30
0.0
 40
820.6249999999987
100
AcDbArc
 50
357.1711535772
 51
0.0
  0
LINE
  5
B2
330
1F
100
AcDbEntity
  8
0
  6
Continuous
 62
     7
370
    25
100
AcDbLine
 10
171.3570913462
 20
252.2957926569
 30
0.0
 11
171.3570913462
 21
277.2957926569
 31
0.0
  0
LINE
  5
B3
330
1F
100
AcDbEntity
  8
0
  6
Continuous
 62
     7
370
    25
100
AcDbLine
 10
89.8570913462
 20
277.2957926569
 30
0.0
 11
89.8570913462
 21
252.2957926569
 31
0.0
  0
ARC
  5
B4
330
1F
100
AcDbEntity
  8
0
  6
Continuous
 62
     7
370
    25
100
AcDbCircle
 10
910.4820913462
 20
277.2957926569
 30
0.0
 40
820.6249999999989
100
AcDbArc
 50
177.1711535772
 51
180.0
  0
ARC
  5
B5
330
1F
100
AcDbEntity
  8
0
  6
Continuous
 62
     7
370
    25
100
AcDbCircle
 10
-649.2679086538
 20
277.2957926569
 30
0.0
 40
820.6249999999987
100
AcDbArc
 50
0.0
 51
2.8288464228
  0
LINE
  5
B6
330
1F
100
AcDbEntity
  8
0
  6
Continuous
 62
     7
370
    25
100
AcDbLine
 10
170.3570913462
 20
211.7957926569
 30
0.0
 11
90.8570913462
 21
211.7957926569
 31
0.0
  0
LINE
  5
B7
330
1F
100
AcDbEntity
  8
0
  6
Continuous
 62
     7
370
    25
100
AcDbLine
 10
170.3570913462
 20
317.7957926569
 30
0.0
 11
90.8570913462
 21
317.7957926569
 31
0.0
  0
LINE
  5
B8
330
1F
100
AcDbEntity
  8
0
  6
Continuous
 62
     1
370
    25
100
AcDbLine
 10
171.3570913462
 20
252.2957926569
 30
0.0
 11
89.8570913462
 21
252.2957926569
 31
0.0
  0
LINE
  5
B9
330
1F
100
AcDbEntity
  8
0
  6
Continuous
 62
     1
370
    25
100
AcDbLine
 10
171.3570913462
 20
277.2957926569
 30
0.0
 11
89.8570913462
 21
277.2957926569
 31
0.0
  0
ARC
  5
BA
330
1F
100
AcDbEntity
  8
0
  6
Continuous
 62
     7
370
    25
100
AcDbCircle
 10
-4.6377529418
 20
875.7699519231
 30
0.0
 40
820.6249999999987
100
AcDbArc
 50
270.0
 51
272.8288464228
  0
ARC
  5
BB
330
1F
100
AcDbEntity
  8
0
  6
Continuous
 62
     7
370
    25
100
AcDbCircle
 10
-4.6377529418
 20
-683.9800480769
 30
0.0
 40
820.624999999999
100
AcDbArc
 50
88.4977994374
 51
90.0
  0
ARC
  5
BC
330
1F
100
AcDbEntity
  8
0
  6
Continuous
 62
     7
370
    25
100
AcDbCircle
 10
-4.6377529418
 20
-683.9800480769
 30
0.0
 40
820.6249999999989
100
AcDbArc
 50
87.1711535772
 51
87.522375469
  0
LINE
  5
BD
330
1F
100
AcDbEntity
  8
0
  6
Continuous
 62
     7
370
    25
100
AcDbLine
 10
-4.6377529418
 20
136.6449519231
 30
0.0
 11
-29.6377529418
 21
136.6449519231
 31
0.0
  0
LINE
  5
BE
330
1F
100
AcDbEntity
  8
0
  6
Continuous
 62
     7
370
    25
100
AcDbLine
 10
-29.6377529418
 20
55.1449519231
 30
0.0
 11
-4.6377529418
 21
55.1449519231
 31
0.0
  0
ARC
  5
BF
330
1F
100
AcDbEntity
  8
0
  6
Continuous
 62
     7
370
    25
100
AcDbCircle
 10
-29.6377529418
 20
875.7699519231
 30
0.0
 40
820.6249999999987
100
AcDbArc
 50
267.1711535772
 51
270.0
  0
ARC
  5
C0
330
1F
100
AcDbEntity
  8
0
  6
Continuous
 62
     7
370
    25
100
AcDbCircle
 10
-29.6377529418
 20
-683.9800480769
 30
0.0
 40
820.6249999999989
100
AcDbArc
 50
92.4780917722
 51
92.8288464228
  0
ARC
  5
C1
330
1F
100
AcDbEntity
  8
0
  6
Continuous
 62
     7
370
    25
100
AcDbCircle
 10
-29.6377529418
 20
-683.9800480769
 30
0.0
 40
820.624999999999
100
AcDbArc
 50
90.0
 51
91.5030545555
  0
LINE
  5
C2
330
1F
100
AcDbEntity
  8
0
  6
Continuous
 62
     7
370
    25
100
AcDbLine
 10
30.8622470582
 20
135.8734268118
 30
0.0
 11
30.8622470582
 21
149.3949519231
 31
0.0
  0
LINE
  5
C3
330
1F
100
AcDbEntity
  8
0
  6
Continuous
 62
     7
370
    25
100
AcDbLine
 10
16.8622470582
 20
149.3949519231
 30
0.0
 11
16.8622470582
 21
136.3607137406
 31
0.0
  0
LINE
  5
C4
330
1F
100
AcDbEntity
  8
0
  6
Continuous
 62
     7
370
    25
100
AcDbLine
 10
-51.1377529418
 20
136.3582815812
 30
0.0
 11
-51.1377529418
 21
149.3949519231
 31
0.0
  0
LINE
  5
C5
330
1F
100
AcDbEntity
  8
0
  6
Continuous
 62
     7
370
    25
100
AcDbLine
 10
-65.1377529418
 20
149.3949519231
 30
0.0
 11
-65.1377529418
 21
135.8743172086
 31
0.0
  0
LINE
  5
C6
330
1F
100
AcDbEntity
  8
0
  6
Continuous
 62
     7
370
    25
100
AcDbLine
 10
35.8622470582
 20
135.6449519231
 30
0.0
 11
35.8622470582
 21
56.1449519231
 31
0.0
  0
SPLINE
  5
C7
330
1F
100
AcDbEntity
  8
0
  6
Continuous
 62
     7
370
    25
100
AcDbSpline
210
0.0
220
0.0
230
1.0
 70
     8
 71
     3
 72
    12
 73
     8
 74
     0
 42
0.00000001
 43
0.00000001
 40
0.0
 40
0.0
 40
0.0
 40
0.0
 40
0.2046765316944089
 40
0.4152205807613772
 40
0.6199183740163048
 40
0.8306961547469442
 40
1.0
 40
1.0
 40
1.0
 40
1.0
 10
19.0474228408076
 20
135.9823438994964
 30
0.0
 10
18.77958102275632
 20
136.0238917313791
 30
0.0
 10
18.23621909297003
 20
136.1081784580541
 30
0.0
 10
17.61613095788698
 20
136.2186945140466
 30
0.0
 10
17.16265543794207
 20
136.3038709353933
 30
0.0
 10
16.90033559075948
 20
136.3556571382657
 30
0.0
 10
16.8828990080433
 20
136.3591460666942
 30
0.0
 10
16.87513204352804
 20
136.3607001775966
 30
0.0
  0
SPLINE
  5
C8
330
1F
100
AcDbEntity
  8
0
  6
Continuous
 62
     7
370
    25
100
AcDbSpline
210
0.0
220
0.0
230
1.0
 70
     8
 71
     3
 72
    21
 73
    17
 74
     0
 42
0.00000001
 43
0.00000001
 40
0.0
 40
0.0
 40
0.0
 40
0.0
 40
0.0318355597052801
 40
0.1025623331601612
 40
0.1753329858705259
 40
0.2462224159253147
 40
0.3191366905427998
 40
0.3905583077028228
 40
0.4640545387184269
 40
0.5353666050954622
 40
0.6087894223867606
 40
0.679367307749938
 40
0.7520034827720579
 40
0.8224404999633987
 40
0.8948721000365666
 40
1.0
 40
1.0
 40
1.0
 40
1.0
 10
30.83709792966798
 20
135.8734262665075
 30
0.0
 10
30.84299438325293
 20
135.8742005222715
 30
0.0
 10
30.86199056370778
 20
135.8766948863835
 30
0.0
 10
30.68470177791967
 20
135.8534008903303
 30
0.0
 10
30.3212300444878
 20
135.8080519534657
 30
0.0
 10
29.76127644216561
 20
135.7442757072461
 30
0.0
 10
29.04320709223872
 20
135.6734308648279
 30
0.0
 10
28.16889064018977
 20
135.6038543267086
 30
0.0
 10
27.17844427947544
 20
135.5472809176468
 30
0.0
 10
26.08376725840668
 20
135.5124084886602
 30
0.0
 10
24.93995953511142
 20
135.5070560918847
 30
0.0
 10
23.75990344302097
 20
135.5348413146841
 30
0.0
 10
22.59887606024255
 20
135.5950091190405
 30
0.0
 10
21.46827096372959
 20
135.6849790529505
 30
0.0
 10
20.23249238517903
 20
135.8146342139002
 30
0.0
 10
19.48813534695529
 20
135.919974770026
 30
0.0
 10
19.0474228408076
 20
135.9823438994964
 30
0.0
  0
LINE
  5
C9
330
1F
100
AcDbEntity
  8
0
  6
Continuous
 62
     7
370
    25
100
AcDbLine
 10
-70.1377529418
 20
135.6449519231
 30
0.0
 11
-70.1377529418
 21
56.1449519231
 31
0.0
  0
SPLINE
  5
CA
330
1F
100
AcDbEntity
  8
0
  6
Continuous
 62
     7
370
    25
100
AcDbSpline
210
0.0
220
0.0
230
1.0
 70
     8
 71
     3
 72
    12
 73
     8
 74
     0
 42
0.00000001
 43
0.00000001
 40
0.0
 40
0.0
 40
0.0
 40
0.0
 40
0.2085710127463498
 40
0.4231664059001091
 40
0.6317443016908987
 40
0.846431993931914
 40
1.0
 40
1.0
 40
1.0
 40
1.0
 10
-63.02669766315363
 20
135.6510094867249
 30
0.0
 10
-63.29108370487916
 20
135.6742581720058
 30
0.0
 10
-63.8274923341224
 20
135.7214270592958
 30
0.0
 10
-64.43325178602356
 20
135.7889205679612
 30
0.0
 10
-64.86881088623912
 20
135.8415984141351
 30
0.0
 10
-65.1094835714736
 20
135.8730013485914
 30
0.0
 10
-65.11642151480673
 20
135.8739259220842
 30
0.0
 10
-65.11931473853353
 20
135.8743114827378
 30
0.0
  0
SPLINE
  5
CB
330
1F
100
AcDbEntity
  8
0
  6
Continuous
 62
     7
370
    25
100
AcDbSpline
210
0.0
220
0.0
230
1.0
 70
     8
 71
     3
 72
    21
 73
    17
 74
     0
 42
0.00000001
 43
0.00000001
 40
0.0
 40
0.0
 40
0.0
 40
0.0
 40
0.0407041748162039
 40
0.1102212164190237
 40
0.1817361476447487
 40
0.2516396393631912
 40
0.3235040098194408
 40
0.3945951798853568
 40
0.4677188228124684
 40
0.5392552841794817
 40
0.612911827900388
 40
0.6836272787250921
 40
0.7564429754722769
 40
0.8263510294989712
 40
0.8982737700100809
 40
1.0
 40
1.0
 40
1.0
 40
1.0
 10
-51.16278062683355
 20
136.3582808735085
 30
0.0
 10
-51.15916595217804
 20
136.3589969279193
 30
0.0
 10
-51.14937791841273
 20
136.3609359031848
 30
0.0
 10
-51.34871103780958
 20
136.3214060294184
 30
0.0
 10
-51.73070372573459
 20
136.248282001018
 30
0.0
 10
-52.30150178225167
 20
136.1452027922679
 30
0.0
 10
-53.02807279822812
 20
136.0248560974237
 30
0.0
 10
-53.90874457082387
 20
135.8954570701857
 30
0.0
 10
-54.90802915588387
 20
135.7707307481045
 30
0.0
 10
-56.01296135444556
 20
135.6604610170198
 30
0.0
 10
-57.16906510854392
 20
135.5764895822362
 30
0.0
 10
-58.36071069893026
 20
135.5237261539436
 30
0.0
 10
-59.5279456216464
 20
135.5053869047213
 30
0.0
 10
-60.65903246826075
 20
135.5193225564772
 30
0.0
 10
-61.87508202515907
 20
135.5654365642975
 30
0.0
 10
-62.60127984396816
 20
135.6193980316184
 30
0.0
 10
-63.02669766315363
 20
135.6510094867249
 30
0.0
  0
LINE
  5
CC
330
1F
100
AcDbEntity
  8
0
  6
Continuous
 62
     7
370
    25
100
AcDbLine
 10
30.8622470582
 20
149.3949519231
 30
0.0
 11
16.8622470582
 21
149.3949519231
 31
0.0
  0
LINE
  5
CD
330
1F
100
AcDbEntity
  8
0
  6
Continuous
 62
     7
370
    25
100
AcDbLine
 10
-51.1377529418
 20
149.3949519231
 30
0.0
 11
-65.1377529418
 21
149.3949519231
 31
0.0
  0
LINE
  5
CE
330
1F
100
AcDbEntity
  8
0
  6
Continuous
 62
     1
370
    25
100
AcDbLine
 10
-4.6377529418
 20
136.6449519231
 30
0.0
 11
-4.6377529418
 21
55.1449519231
 31
0.0
  0
LINE
  5
CF
330
1F
100
AcDbEntity
  8
0
  6
Continuous
 62
     1
370
    25
100
AcDbLine
 10
-29.6377529418
 20
136.6449519231
 30
0.0
 11
-29.6377529418
 21
55.1449519231
 31
0.0
  0
ARC
  5
D0
330
1F
100
AcDbEntity
  8
0
  6
Continuous
 62
     7
370
    25
100
AcDbCircle
 10
-649.2679086538
 20
-29.8645096376
 30
0.0
 40
820.6249999999987
100
AcDbArc
 50
0.0
 51
2.8288464228
  0
ARC
  5
D1
330
1F
100
AcDbEntity
  8
0
  6
Continuous
 62
     7
370
    25
100
AcDbCircle
 10
910.4820913462
 20
-29.8645096376
 30
0.0
 40
820.6249999999989
100
AcDbArc
 50
177.1711535772
 51
180.0
  0
LINE
  5
D2
330
1F
100
AcDbEntity
  8
0
  6
Continuous
 62
     7
370
    25
100
AcDbLine
 10
89.8570913462
 20
-29.8645096376
 30
0.0
 11
89.8570913462
 21
-54.8645096376
 31
0.0
  0
LINE
  5
D3
330
1F
100
AcDbEntity
  8
0
  6
Continuous
 62
     7
370
    25
100
AcDbLine
 10
171.3570913462
 20
-54.8645096376
 30
0.0
 11
171.3570913462
 21
-29.8645096376
 31
0.0
  0
ARC
  5
D4
330
1F
100
AcDbEntity
  8
0
  6
Continuous
 62
     7
370
    25
100
AcDbCircle
 10
-649.2679086538
 20
-54.8645096376
 30
0.0
 40
820.6249999999987
100
AcDbArc
 50
357.1711535772
 51
0.0
  0
ARC
  5
D5
330
1F
100
AcDbEntity
  8
0
  6
Continuous
 62
     7
370
    25
100
AcDbCircle
 10
910.4820913462
 20
-54.8645096376
 30
0.0
 40
820.6249999999989
100
AcDbArc
 50
180.0
 51
182.8288464228
  0
CIRCLE
  5
D6
330
1F
100
AcDbEntity
  8
0
  6
Continuous
 62
     7
370
    25
100
AcDbCircle
 10
130.6070913462
 20
-1.3645096376
 30
0.0
 40
5.000000000000004
  0
CIRCLE
  5
D7
330
1F
100
AcDbEntity
  8
0
  6
Continuous
 62
     7
370
    25
100
AcDbCircle
 10
130.6070913462
 20
-1.3645096376
 30
0.0
 40
7.00000000000002
  0
CIRCLE
  5
D8
330
1F
100
AcDbEntity
  8
0
  6
Continuous
 62
     7
370
    25
100
AcDbCircle
 10
130.6070913462
 20
-83.3645096376
 30
0.0
 40
7.000000000000028
  0
CIRCLE
  5
D9
330
1F
100
AcDbEntity
  8
0
  6
Continuous
 62
     7
370
    25
100
AcDbCircle
 10
130.6070913462
 20
-83.3645096376
 30
0.0
 40
5.0
  0
LINE
  5
DA
330
1F
100
AcDbEntity
  8
0
  6
Continuous
 62
     7
370
    25
100
AcDbLine
 10
90.8570913462
 20
10.6354903624
 30
0.0
 11
170.3570913462
 21
10.6354903624
 31
0.0
  0
LINE
  5
DB
330
1F
100
AcDbEntity
  8
0
  6
Continuous
 62
     7
370
    25
100
AcDbLine
 10
90.8570913462
 20
-95.3645096376
 30
0.0
 11
170.3570913462
 21
-95.3645096376
 31
0.0
  0
LINE
  5
DC
330
1F
100
AcDbEntity
  8
0
  6
Continuous
 62
     1
370
    25
100
AcDbLine
 10
89.8570913462
 20
-29.8645096376
 30
0.0
 11
171.3570913462
 21
-29.8645096376
 31
0.0
  0
LINE
  5
DD
330
1F
100
AcDbEntity
  8
0
  6
Continuous
 62
     1
370
    25
100
AcDbLine
 10
89.8570913462
 20
-54.8645096376
 30
0.0
 11
171.3570913462
 21
-54.8645096376
 31
0.0
  0
INSERT
  5
E9
330
1F
100
AcDbEntity
  8
FORMAT
 62
     7
100
AcDbBlockReference
  2
SW_CENTERMARKSYMBOL_1
 10
130.6070913462
 20
-1.3645096376
 30
0.0
  0
INSERT
  5
F5
330
1F
100
AcDbEntity
  8
FORMAT
 62
     7
100
AcDbBlockReference
  2
SW_CENTERMARKSYMBOL_2
 10
130.6070913462
 20
-83.3645096376
 30
0.0
  0
SPLINE
  5
F6
330
1F
100
AcDbEntity
  8
0
  6
Continuous
 62
     7
370
    25
100
AcDbSpline
210
0.0
220
0.0
230
1.0
 70
     8
 71
     3
 72
    12
 73
     8
 74
     0
 42
0.00000001
 43
0.00000001
 40
0.0
 40
0.0
 40
0.0
 40
0.0
 40
0.1299460544720893
 40
0.4184938262304361
 40
0.7069162668430953
 40
0.9951903430210925
 40
0.9999999999999999
 40
0.9999999999999999
 40
0.9999999999999999
 40
0.9999999999999999
 10
246.765644674294
 20
-17.33507252113807
 30
0.0
 10
245.795628237145
 20
-17.91015437352259
 30
0.0
 10
242.671671207914
 20
-19.76221679879443
 30
0.0
 10
237.4493260301935
 20
-22.97999647626581
 30
0.0
 10
231.1082251659619
 20
-26.99437453064295
 30
0.0
 10
226.8688803824097
 20
-29.72705283078057
 30
0.0
 10
224.759032976726
 20
-31.14156301919387
 30
0.0
 10
224.724409279976
 20
-31.16477586941301
 30
0.0
  0
SPLINE
  5
F7
330
1F
100
AcDbEntity
  8
0
  6
Continuous
 62
     7
370
    25
100
AcDbSpline
210
0.0
220
0.0
230
1.0
 70
     8
 71
     3
 72
    13
 73
     9
 74
     0
 42
0.00000001
 43
0.00000001
 40
0.0
 40
0.0
 40
0.0
 40
0.0
 40
0.0014324365168066
 40
0.2231853460189635
 40
0.4449547462970398
 40
0.6667223905094958
 40
0.8884702968792059
 40
1.0
 40
1.0
 40
1.0
 40
1.0
 10
264.4448026672869
 20
-99.97329032379405
 30
0.0
 10
264.459314981884
 20
-99.9661651027488
 30
0.0
 10
266.7204525030831
 20
-98.85599728324465
 30
0.0
 10
271.1904401974066
 20
-96.55857512852234
 30
0.0
 10
277.8497552685693
 20
-93.076191690016
 30
0.0
 10
284.4555871276464
 20
-89.48803123013091
 30
0.0
 10
289.9364545417801
 20
-86.43707488349078
 30
0.0
 10
293.1948321685705
 20
-84.54772816010724
 30
0.0
 10
294.2852321205114
 20
-83.91546762669383
 30
0.0
  0
LINE
  5
F8
330
1F
100
AcDbEntity
  8
0
  6
Continuous
 62
     7
370
    25
100
AcDbLine
 10
260.7656446743
 20
-27.5192161049
 30
0.0
 11
260.7656446743
 21
-16.5837677535
 31
0.0
  0
LINE
  5
F9
330
1F
100
AcDbEntity
  8
0
  6
Continuous
 62
     7
370
    25
100
AcDbLine
 10
246.7656446743
 20
-16.5837677535
 30
0.0
 11
246.7656446743
 21
-27.8016220851
 31
0.0
  0
LINE
  5
FA
330
1F
100
AcDbEntity
  8
0
  6
Continuous
 62
     7
370
    25
100
AcDbLine
 10
271.2225132903
 20
-3.1382930561
 30
0.0
 11
254.8476196119
 21
-12.5913179633
 31
0.0
  0
LINE
  5
FB
330
1F
100
AcDbEntity
  8
0
  6
Continuous
 62
     7
370
    25
100
AcDbLine
 10
294.2915321156
 20
-83.9263767379
 30
0.0
 11
311.9692016452
 21
-73.7212753401
 31
0.0
  0
SPLINE
  5
FC
330
1F
100
AcDbEntity
  8
0
  6
Continuous
 62
     7
370
    25
100
AcDbSpline
210
0.0
220
0.0
230
1.0
 70
     8
 71
     3
 72
    13
 73
     9
 74
     0
 42
0.00000001
 43
0.00000001
 40
0.0
 40
0.0
 40
0.0
 40
0.0
 40
0.0014213574315468
 40
0.2231767221896815
 40
0.4449485779065792
 40
0.6667186775370886
 40
0.8884690391070751
 40
1.0
 40
1.0
 40
1.0
 40
1.0
 10
301.0689055327642
 20
12.90845495279405
 30
0.0
 10
301.054505624132
 20
12.90138491515776
 30
0.0
 10
298.7934808199264
 20
11.7912715894026
 30
0.0
 10
294.323605497205
 20
9.493904694247462
 30
0.0
 10
287.6642900599154
 20
6.011522067600556
 30
0.0
 10
281.0584582990627
 20
2.42336138975343
 30
0.0
 10
275.5775906363625
 20
-0.6275950327744793
 30
0.0
 10
272.3192127878167
 20
-2.516941890799873
 30
0.0
 10
271.2288126126284
 20
-3.149202555689221
 30
0.0
  0
SPLINE
  5
FD
330
1F
100
AcDbEntity
  8
0
  6
Continuous
 62
     7
370
    25
100
AcDbSpline
210
0.0
220
0.0
230
1.0
 70
     8
 71
     3
 72
    13
 73
     9
 74
     0
 42
0.00000001
 43
0.00000001
 40
0.0
 40
0.0
 40
0.0
 40
0.0
 40
0.1101817360923894
 40
0.3318390670144827
 40
0.553417772755165
 40
0.7749002354620391
 40
0.9962687676418696
 40
1.0
 40
1.0
 40
1.0
 40
1.0
 10
311.962901650175
 20
-73.71036622890995
 30
0.0
 10
313.042537021219
 20
-73.08995402420452
 30
0.0
 10
316.2941212397018
 20
-71.22143193991627
 30
0.0
 10
321.6614411209234
 20
-68.0106620036984
 30
0.0
 10
328.0670073501863
 20
-64.0884899027053
 30
0.0
 10
334.4051698024658
 20
-60.06920991599154
 30
0.0
 10
338.6455232727881
 20
-57.33738437122127
 30
0.0
 10
340.755722188374
 20
-55.92263120284655
 30
0.0
 10
340.7907006455575
 20
-55.89918038844234
 30
0.0
  0
LINE
  5
FE
330
1F
100
AcDbEntity
  8
0
  6
Continuous
 62
     7
370
    25
100
AcDbLine
 10
318.7484007316
 20
5.6711055369
 30
0.0
 11
318.7484007316
 21
16.8889648312
 31
0.0
  0
LINE
  5
FF
330
1F
100
AcDbEntity
  8
0
  6
Continuous
 62
     7
370
    25
100
AcDbLine
 10
304.7484007316
 20
16.8889648312
 30
0.0
 11
304.7484007316
 21
5.953042535
 31
0.0
  0
LWPOLYLINE
  5
100
330
1F
100
AcDbEntity
  8
0
  6
Continuous
 62
     7
370
    25
100
AcDbPolyline
 90
      119
 70
   128
 43
0.0
 10
217.1728687479
 20
-48.9410386379
 10
217.2127056214
 20
-47.2365773807
 10
217.3321033201
 20
-45.5829422793
 10
217.5307233982
 20
-43.984820742
 10
217.8080028455
 20
-42.446742818
 10
218.1631556832
 20
-40.9730683563
 10
218.5951751922
 20
-39.5679746472
 10
219.1028367661
 20
-38.2354445815
 10
219.684701383
 20
-36.9792553604
 10
220.3391196846
 20
-35.8029677888
 10
221.0642366509
 20
-34.7099161816
 10
221.8579968592
 20
-33.7031989124
 10
222.71815031
 20
-32.7856696305
 10
223.6422588047
 20
-31.9599291725
 10
224.6277028576
 20
-31.2283181894
 10
225.6716891203
 20
-30.592910512
 10
226.7712583004
 20
-30.0555072724
 10
227.9232935496
 20
-29.6176317985
 10
229.1245292988
 20
-29.2805252958
 10
230.3715605147
 20
-29.0451433295
 10
231.6608523519
 20
-28.9121531151
 10
232.9887501726
 20
-28.881931628
 10
234.3514899062
 20
-28.9545645343
 10
235.7452087188
 20
-29.129845948
 10
237.165955963
 20
-29.407279015
 10
238.6097043763
 20
-29.7860773211
 10
240.0723614972
 20
-30.2651671214
 10
241.549781265
 20
-30.8431903837
 10
243.0377757729
 20
-31.5185086383
 10
244.5321271388
 20
-32.2892076222
 10
246.0285994613
 20
-33.1531027055
 10
247.5229508272
 20
-34.1077450837
 10
249.0109453351
 20
-35.1504287192
 10
250.4883651029
 20
-36.278198012
 10
251.9510222238
 20
-37.4878561775
 10
253.3947706372
 20
-38.7759743082
 10
254.8155178814
 20
-40.1389010933
 10
256.2092366939
 20
-41.5727731687
 10
257.5719764275
 20
-43.0735260684
 10
258.8998742482
 20
-44.636905745
 10
260.1891660854
 20
-46.2584806292
 10
261.4361973013
 20
-47.9336541907
 10
262.6374330505
 20
-49.6576779679
 10
263.7894682997
 20
-51.4256650284
 10
264.8890374798
 20
-53.2326038205
 10
265.9330237425
 20
-55.07337238
 10
266.9184677954
 20
-56.9427528485
 10
267.8425762902
 20
-58.8354462638
 10
268.7027297409
 20
-60.7460875809
 10
269.4964899492
 20
-62.6692608794
 10
270.2216069156
 20
-64.5995147155
 10
270.8760252171
 20
-66.5313775752
 10
271.457889834
 20
-68.4593733832
 10
271.9655514079
 20
-70.3780370259
 10
272.3975709169
 20
-72.2819298428
 10
272.7527237546
 20
-74.1656550428
 10
273.0300032019
 20
-76.0238730023
 10
273.22862328
 20
-77.8513164004
 10
273.3480209787
 20
-79.6428051504
 10
273.3878578522
 20
-81.3932610828
 10
273.3480209787
 20
-83.09772234
 10
273.22862328
 20
-84.7513574414
 10
273.0300032019
 20
-86.3494789787
 10
272.7527237546
 20
-87.8875569026
 10
272.3975709169
 20
-89.3612313644
 10
271.9655514079
 20
-90.7663250735
 10
271.457889834
 20
-92.0988551392
 10
270.8760252171
 20
-93.3550443603
 10
270.2216069156
 20
-94.5313319318
 10
269.4964899492
 20
-95.624383539
 10
268.7027297409
 20
-96.6311008083
 10
267.8425762902
 20
-97.5486300901
 10
266.9184677954
 20
-98.3743705481
 10
265.9330237425
 20
-99.1059815312
 10
264.8890374798
 20
-99.7413892086
 10
263.7894682997
 20
-100.2787924482
 10
262.6374330505
 20
-100.7166679222
 10
261.4361973013
 20
-101.0537744248
 10
260.1891660854
 20
-101.2891563912
 10
258.8998742482
 20
-101.4221466055
 10
257.5719764275
 20
-101.4523680926
 10
256.2092366939
 20
-101.3797351864
 10
254.8155178814
 20
-101.2044537726
 10
253.3947706372
 20
-100.9270207056
 10
251.9510222238
 20
-100.5482223995
 10
250.4883651029
 20
-100.0691325993
 10
249.0109453351
 20
-99.491109337
 10
247.5229508272
 20
-98.8157910824
 10
246.0285994613
 20
-98.0450920984
 10
244.5321271388
 20
-97.1811970151
 10
243.0377757729
 20
-96.226554637
 10
241.549781265
 20
-95.1838710015
 10
240.0723614972
 20
-94.0561017087
 10
238.6097043763
 20
-92.8464435432
 10
237.165955963
 20
-91.5583254125
 10
235.7452087188
 20
-90.1953986274
 10
234.3514899062
 20
-88.7615265519
 10
232.9887501726
 20
-87.2607736523
 10
231.6608523519
 20
-85.6973939756
 10
230.3715605147
 20
-84.0758190914
 10
229.1245292988
 20
-82.40064553
 10
227.9232935496
 20
-80.6766217527
 10
226.7712583004
 20
-78.9086346923
 10
225.6716891203
 20
-77.1016959002
 10
224.6277028576
 20
-75.2609273406
 10
223.6422588047
 20
-73.3915468722
 10
222.71815031
 20
-71.4988534568
 10
221.8579968592
 20
-69.5882121397
 10
221.0642366509
 20
-67.6650388413
 10
220.3391196846
 20
-65.7347850051
 10
219.684701383
 20
-63.8029221455
 10
219.1028367661
 20
-61.8749263375
 10
218.5951751922
 20
-59.9562626948
 10
218.1631556832
 20
-58.0523698779
 10
217.8080028455
 20
-56.1686446778
 10
217.5307233982
 20
-54.3104267184
 10
217.3321033201
 20
-52.4829833202
 10
217.2127056214
 20
-50.6914945702
 10
217.1728687479
 20
-48.9410386379
  0
SPLINE
  5
101
330
1F
100
AcDbEntity
  8
0
  6
Continuous
 62
     7
370
    25
100
AcDbSpline
210
0.0
220
0.0
230
1.0
 70
     8
 71
     3
 72
    17
 73
    13
 74
     0
 42
0.00000001
 43
0.00000001
 40
0.0
 40
0.0
 40
0.0
 40
0.0
 40
0.1065942297197112
 40
0.2131869074436954
 40
0.3198070968752972
 40
0.426423100675886
 40
0.5324669432944701
 40
0.6385116272297047
 40
0.7441009251942957
 40
0.8496944225899455
 40
0.9559256743217985
 40
0.9999999999999999
 40
0.9999999999999999
 40
0.9999999999999999
 40
0.9999999999999999
 10
253.8511109749876
 20
-31.84697044297493
 30
0.0
 10
253.457581391918
 20
-31.81919539246432
 30
0.0
 10
252.6705279555095
 20
-31.7636456958436
 30
0.0
 10
251.5194246992409
 20
-31.53981680948918
 30
0.0
 10
250.4327229667463
 20
-31.22516318026669
 30
0.0
 10
249.4398517444002
 20
-30.82576446741692
 30
0.0
 10
248.5732147062366
 20
-30.35682728588229
 30
0.0
 10
247.8533416504735
 20
-29.83433250578523
 30
0.0
 10
247.3007475684138
 20
-29.27009820277519
 30
0.0
 10
246.9368755967689
 20
-28.67568811482038
 30
0.0
 10
246.7649847174843
 20
-28.18182595205461
 30
0.0
 10
246.7843406741902
 20
-27.88797988513266
 30
0.0
 10
246.7900164498624
 20
-27.80181497045725
 30
0.0
  0
SPLINE
  5
102
330
1F
100
AcDbEntity
  8
0
  6
Continuous
 62
     7
370
    25
100
AcDbSpline
210
0.0
220
0.0
230
1.0
 70
     8
 71
     3
 72
    16
 73
    12
 74
     0
 42
0.00000001
 43
0.00000001
 40
0.0
 40
0.0
 40
0.0
 40
0.0
 40
0.0908914955509819
 40
0.1993526499349476
 40
0.3085540851854363
 40
0.4177471222848343
 40
0.5256953218554232
 40
0.6336413260766544
 40
0.7403074957648422
 40
0.8469788411349944
 40
1.0
 40
1.0
 40
1.0
 40
1.0
 10
260.7520797778956
 20
-27.51876574090156
 30
0.0
 10
260.7437678300831
 20
-27.73813617895278
 30
0.0
 10
260.7255372045169
 20
-28.21928216381971
 30
0.0
 10
260.4611619338832
 20
-28.94797410533508
 30
0.0
 10
260.0062785337252
 20
-29.67106845768737
 30
0.0
 10
259.3700578995702
 20
-30.32171377407941
 30
0.0
 10
258.5733646715282
 20
-30.87218413290507
 30
0.0
 10
257.648950233092
 20
-31.31117946345461
 30
0.0
 10
256.6173405636287
 20
-31.62197999935011
 30
0.0
 10
255.3538307420019
 20
-31.84762910332826
 30
0.0
 10
254.4082718852191
 20
-31.84721465337932
 30
0.0
 10
253.8511109749876
 20
-31.84697044297493
 30
0.0
  0
LWPOLYLINE
  5
103
330
1F
100
AcDbEntity
  8
0
  6
Continuous
 62
     7
370
    25
100
AcDbPolyline
 90
      106
 70
   128
 43
0.0
 10
222.8650783364
 20
-52.2270812879
 10
222.9051987877
 20
-50.7022510539
 10
223.0254165209
 20
-49.2292014034
 10
223.2253011875
 20
-47.8132054719
 10
223.5041372524
 20
-46.4593321574
 10
223.8609265549
 20
-45.1724279749
 10
224.2943918818
 20
-43.9570997074
 10
224.8029815398
 20
-42.8176979147
 10
225.3848749099
 20
-41.7583013595
 10
226.0379889648
 20
-40.7827024065
 10
226.7599857258
 20
-39.8943934468
 10
227.5482806318
 20
-39.0965543958
 10
228.4000517916
 20
-38.3920413104
 10
229.3122500856
 20
-37.7833761644
 10
230.2816100806
 20
-37.2727378213
 10
231.3046617195
 20
-36.8619542337
 10
232.3777427428
 20
-36.5524959002
 10
233.497011799
 20
-36.3454706013
 10
234.6584621954
 20
-36.241619434
 10
235.857936241
 20
-36.2413141584
 10
237.09114013
 20
-36.3445558673
 10
238.3536593125
 20
-36.5509749822
 10
239.6409742976
 20
-36.8598325763
 10
240.9484768318
 20
-37.2700230195
 10
242.2714863952
 20
-37.7800779365
 10
243.605266957
 20
-38.388171463
 10
244.9450439289
 20
-39.0921267822
 10
246.2860212572
 20
-39.8894239165
 10
247.623398591
 20
-40.7772087493
 10
248.9523884666
 20
-41.7523032412
 10
250.2682334451
 20
-42.811216807
 10
251.566223143
 20
-43.950158811
 10
252.841711094
 20
-45.1650521364
 10
254.0901313824
 20
-46.4515477804
 10
255.3070149875
 20
-47.8050404224
 10
256.4880057819
 20
-49.2206849102
 10
257.6288761249
 20
-50.6934136038
 10
258.7255419969
 20
-52.2179545168
 10
259.7740776187
 20
-53.7888501883
 10
260.7707295048
 20
-55.4004772195
 10
261.7119299002
 20
-57.0470664041
 10
262.5943095518
 20
-58.7227233799
 10
263.4147097694
 20
-60.42144973
 10
264.1701937331
 20
-62.1371644549
 10
264.8580570064
 20
-63.8637257411
 10
265.4758372174
 20
-65.5949529475
 10
266.0213228732
 20
-67.3246487297
 10
266.4925612768
 20
-69.046621226
 10
266.8878655169
 20
-70.7547062217
 10
267.205820507
 20
-72.4427892157
 10
267.4452880507
 20
-74.1048273092
 10
267.6054109164
 20
-75.734870837
 10
267.6856159058
 20
-77.3270846664
 10
267.6856159058
 20
-78.8757690852
 10
267.6054109164
 20
-80.3753802049
 10
267.4452880507
 20
-81.8205498072
 10
267.205820507
 20
-83.2061045598
 10
266.8878655169
 20
-84.5270845363
 10
266.4925612768
 20
-85.7787609712
 10
266.0213228732
 20
-86.9566531878
 10
265.4758372174
 20
-88.0565446377
 10
264.8580570064
 20
-89.0744979949
 10
264.1701937331
 20
-90.0068692505
 10
263.4147097694
 20
-90.8503207575
 10
262.5943095518
 20
-91.6018331784
 10
261.7119299002
 20
-92.2587162938
 10
260.7707295048
 20
-92.8186186325
 10
259.7740776187
 20
-93.2795358896
 10
258.7255419969
 20
-93.6398181009
 10
257.6288761249
 20
-93.8981755495
 10
256.4880057819
 20
-94.0536833829
 10
255.3070149875
 20
-94.1057849233
 10
254.0901313824
 20
-94.0542936608
 10
252.841711094
 20
-93.8993939208
 10
251.566223143
 20
-93.641640204
 10
250.2682334451
 20
-93.281955202
 10
248.9523884666
 20
-92.8216264936
 10
247.623398591
 20
-92.2623019362
 10
246.2860212572
 20
-91.6059837666
 10
244.9450439289
 20
-90.8550214333
 10
243.605266957
 20
-90.0121031868
 10
242.2714863952
 20
-89.0802464554
 10
240.9484768318
 20
-88.0627870446
 10
239.6409742976
 20
-86.9633671949
 10
238.3536593125
 20
-85.785922544
 10
237.09114013
 20
-84.5346680382
 10
235.857936241
 20
-83.2140828439
 10
234.6584621954
 20
-81.8288943133
 10
233.497011799
 20
-80.3840610619
 10
232.3777427428
 20
-78.8847552177
 10
231.3046617195
 20
-77.3363439065
 10
230.2816100806
 20
-75.744370039
 10
229.3122500856
 20
-74.1145324684
 10
228.4000517916
 20
-72.4526655903
 10
227.5482806318
 20
-70.7647184567
 10
226.7599857258
 20
-69.0567334803
 10
226.0379889648
 20
-67.334824804
 10
225.3848749099
 20
-65.6051564139
 10
224.8029815398
 20
-63.8739200742
 10
224.2943918818
 20
-62.1473131614
 10
223.8609265549
 20
-60.4315164802
 10
223.5041372524
 20
-58.7326721375
 10
223.2253011875
 20
-57.056861555
 10
223.0254165209
 20
-55.4100836998
 10
222.9051987877
 20
-53.7982336091
 10
222.8650783364
 20
-52.2270812879
  0
LWPOLYLINE
  5
104
330
1F
100
AcDbEntity
  8
0
  6
Continuous
 62
     7
370
    25
100
AcDbPolyline
 90
       50
 70
   128
 43
0.0
 10
258.7153921426
 20
-13.7263393621
 10
259.3077144416
 20
-14.1151986421
 10
259.8090361083
 20
-14.5445917587
 10
260.2111254546
 20
-15.0074680887
 10
260.5073801848
 20
-15.4962272156
 10
260.6929358043
 20
-16.0028437281
 10
260.7647454949
 20
-16.5189989971
 10
260.7216301435
 20
-17.0362177672
 10
260.5642977031
 20
-17.5460073206
 10
260.2953315679
 20
-18.0399969269
 10
259.9191481544
 20
-18.5100752905
 10
259.4419243839
 20
-18.9485237376
 10
258.8714962575
 20
-19.3481429567
 10
258.2172301892
 20
-19.7023712115
 10
257.4898692099
 20
-20.0053920837
 10
256.7013565667
 20
-20.252229979
 10
255.8646396153
 20
-20.4388318259
 10
254.993457225
 20
-20.5621336274
 10
254.1021141866
 20
-20.6201107712
 10
253.2052463282
 20
-20.6118112743
 10
252.317580195
 20
-20.5373714141
 10
251.4536912406
 20
-20.3980134911
 10
250.6277644977
 20
-20.1960257586
 10
249.8533616604
 20
-19.9347248494
 10
249.1431984022
 20
-19.6184013174
 10
248.5089355839
 20
-19.2522491862
 10
247.9609877835
 20
-18.8422806636
 10
247.5083522888
 20
-18.3952274215
 10
247.1584613621
 20
-17.9184300617
 10
246.9170602027
 20
-17.4197175837
 10
246.788112611
 20
-16.9072788326
 10
246.7737359029
 20
-16.3895280385
 10
246.8741661435
 20
-15.8749666552
 10
247.0877542711
 20
-15.3720437663
 10
247.4109931744
 20
-14.8890173518
 10
247.8385752797
 20
-14.4338186921
 10
248.3634797006
 20
-14.0139221364
 10
248.977087521
 20
-13.6362223748
 10
249.6693233175
 20
-13.3069212268
 10
250.4288205974
 20
-13.0314258082
 10
251.2431084364
 20
-12.8142597461
 10
252.0988162507
 20
-12.6589889012
 10
252.9818933416
 20
-12.5681628167
 10
253.8778396077
 20
-12.5432728541
 10
254.7719436361
 20
-12.5847277061
 10
255.6495242634
 20
-12.6918466852
 10
256.49617164
 20
-12.8628709005
 10
257.2979838392
 20
-13.0949921394
 10
258.041795127
 20
-13.3843989773
 10
258.7153921426
 20
-13.7263393621
  0
LWPOLYLINE
  5
105
330
1F
100
AcDbEntity
  8
0
  6
Continuous
 62
     7
370
    25
100
AcDbPolyline
 90
       43
 70
   128
 43
0.0
 10
257.3011785802
 20
-14.5427474739
 10
257.7886335731
 20
-14.8697422719
 10
258.1862216418
 20
-15.2350255668
 10
258.4850613258
 20
-15.6304375334
 10
258.6784770405
 20
-16.0471453218
 10
258.7621481982
 20
-16.4758403685
 10
258.7342057238
 20
-16.9069463347
 10
258.5952738057
 20
-17.3308330255
 10
258.3484559536
 20
-17.7380315125
 10
257.9992656704
 20
-18.1194456545
 10
257.55550329
 20
-18.4665552899
 10
257.0270817307
 20
-18.7716065629
 10
256.4258050569
 20
-19.0277851322
 10
255.7651047959
 20
-19.2293683919
 10
255.0597398998
 20
-19.371853305
 10
254.3254670548
 20
-19.4520569941
 10
253.5786887029
 20
-19.4681878413
 10
252.8360866385
 20
-19.41988551
 10
252.1142493645
 20
-19.3082289947
 10
251.4293015329
 20
-19.1357125172
 10
250.7965437464
 20
-18.9061898107
 10
250.2301107684
 20
-18.6247880331
 10
249.7426557755
 20
-18.2977932351
 10
249.3450677068
 20
-17.9325099402
 10
249.0462280228
 20
-17.5370979736
 10
248.8528123081
 20
-17.1203901853
 10
248.7691411504
 20
-16.6916951385
 10
248.7970836248
 20
-16.2605891723
 10
248.9360155428
 20
-15.8367024815
 10
249.1828333949
 20
-15.4295039945
 10
249.5320236782
 20
-15.0480898525
 10
249.9757860586
 20
-14.7009802171
 10
250.5042076179
 20
-14.3959289441
 10
251.1054842917
 20
-14.1397503748
 10
251.7661845527
 20
-13.9381671151
 10
252.4715494488
 20
-13.795682202
 10
253.2058222938
 20
-13.7154785129
 10
253.9526006457
 20
-13.6993476657
 10
254.6952027101
 20
-13.747649997
 10
255.4170399841
 20
-13.8593065124
 10
256.1019878157
 20
-14.0318229898
 10
256.7347456022
 20
-14.2613456964
 10
257.3011785802
 20
-14.5427474739
  0
ARC
  5
106
330
1F
100
AcDbEntity
  8
0
  6
Continuous
 62
     7
370
    25
100
AcDbCircle
 10
307.2325304648
 20
0.4844725708
 30
0.0
 40
13.869188439711
100
AcDbArc
 50
100.3180055501
 51
116.3935699418
  0
LWPOLYLINE
  5
107
330
1F
100
AcDbEntity
  8
0
  6
Continuous
 62
     7
370
    25
100
AcDbPolyline
 90
       47
 70
   128
 43
0.0
 10
318.7484007316
 20
11.3720636501
 10
319.4854459445
 20
10.9804223044
 10
320.9819182671
 20
10.1165272211
 10
322.476269633
 20
9.1618848429
 10
323.9642641409
 20
8.1192012074
 10
325.4416839087
 20
6.9914319146
 10
326.9043410295
 20
5.7817737491
 10
328.3480894429
 20
4.4936556184
 10
329.7688366871
 20
3.1307288333
 10
331.1625554997
 20
1.6968567579
 10
332.5252952332
 20
0.1961038582
 10
333.853193054
 20
-1.3672758184
 10
335.1424848912
 20
-2.9888507026
 10
336.3895161071
 20
-4.6640242641
 10
337.5907518563
 20
-6.3880480413
 10
338.7427871054
 20
-8.1560351018
 10
339.8423562856
 20
-9.9629738939
 10
340.8863425483
 20
-11.8037424534
 10
341.8717866012
 20
-13.6731229219
 10
342.7958950959
 20
-15.5658163372
 10
343.6560485467
 20
-17.4764576543
 10
344.449808755
 20
-19.3996309528
 10
345.1749257213
 20
-21.3298847889
 10
345.8293440229
 20
-23.2617476486
 10
346.4112086398
 20
-25.1897434566
 10
346.9188702137
 20
-27.1084070993
 10
347.3508897226
 20
-29.0122999162
 10
347.7060425604
 20
-30.8960251162
 10
347.9833220077
 20
-32.7542430757
 10
348.1819420858
 20
-34.5816864738
 10
348.3013397845
 20
-36.3731752238
 10
348.341176658
 20
-38.1236311562
 10
348.3013397845
 20
-39.8280924134
 10
348.1819420858
 20
-41.4817275148
 10
347.9833220077
 20
-43.0798490521
 10
347.7060425604
 20
-44.617926976
 10
347.3508897226
 20
-46.0916014378
 10
346.9188702137
 20
-47.4966951469
 10
346.4112086398
 20
-48.8292252126
 10
345.8293440229
 20
-50.0854144336
 10
345.1749257213
 20
-51.2617020052
 10
344.449808755
 20
-52.3547536124
 10
343.6560485467
 20
-53.3614708817
 10
342.7958950959
 20
-54.2790001635
 10
341.8717866012
 20
-55.1047406215
 10
340.8863425483
 20
-55.8363516046
 10
340.7893344424
 20
-55.9010799874
  0
SPLINE
  5
108
330
1F
100
AcDbEntity
  8
0
  6
Continuous
 62
     7
370
    25
100
AcDbSpline
210
0.0
220
0.0
230
1.0
 70
     8
 71
     3
 72
    17
 73
    13
 74
     0
 42
0.00000001
 43
0.00000001
 40
0.0
 40
0.0
 40
0.0
 40
0.0
 40
0.1055408175052831
 40
0.2110752157681765
 40
0.316681206566279
 40
0.4222786341634149
 40
0.5265519397048599
 40
0.6308262216827933
 40
0.7341575260931051
 40
0.8374972323349782
 40
0.9419481050085519
 40
1.0
 40
1.0
 40
1.0
 40
1.0
 10
311.9366785270227
 20
1.897470980278919
 30
0.0
 10
311.5441023563129
 20
1.936986565906219
 30
0.0
 10
310.7589738923054
 20
2.016015333729332
 30
0.0
 10
309.6053228271031
 20
2.26460501702222
 30
0.0
 10
308.5117122353946
 20
2.595841810974296
 30
0.0
 10
307.5104110239823
 20
3.001985940550247
 30
0.0
 10
306.6342109237189
 20
3.466866762613777
 30
0.0
 10
305.9041052232232
 20
3.973387205367926
 30
0.0
 10
305.3388372976987
 20
4.510492710148569
 30
0.0
 10
304.9547437269678
 20
5.067526575415863
 30
0.0
 10
304.7598585723031
 20
5.552312800166908
 30
0.0
 10
304.7692405674814
 20
5.84766799658451
 30
0.0
 10
304.7725921571603
 20
5.953179607826479
 30
0.0
  0
SPLINE
  5
109
330
1F
100
AcDbEntity
  8
0
  6
Continuous
 62
     7
370
    25
100
AcDbSpline
210
0.0
220
0.0
230
1.0
 70
     8
 71
     3
 72
    16
 73
    12
 74
     0
 42
0.00000001
 43
0.00000001
 40
0.0
 40
0.0
 40
0.0
 40
0.0
 40
0.0824116944293382
 40
0.1916907402899178
 40
0.3008359280461911
 40
0.4099762149073149
 40
0.5179704840560058
 40
0.6259681846673572
 40
0.7337004244422023
 40
0.8414403174881702
 40
1.0
 40
1.0
 40
1.0
 40
1.0
 10
318.7297610356438
 20
5.67157328728353
 30
0.0
 10
318.7259368340198
 20
5.485783248904127
 30
0.0
 10
318.7170416881863
 20
5.053633051750064
 30
0.0
 10
318.4723562427777
 20
4.396842050841176
 30
0.0
 10
318.0351285023236
 20
3.733590997548455
 30
0.0
 10
317.4184108211028
 20
3.146272492919197
 30
0.0
 10
316.6431894520495
 20
2.658282331190309
 30
0.0
 10
315.7386275361245
 20
2.277348964810397
 30
0.0
 10
314.7237202770635
 20
2.018873709725657
 30
0.0
 10
313.4604088567891
 20
1.845201785089318
 30
0.0
 10
312.5053426027901
 20
1.877963845064133
 30
0.0
 10
311.9366785270227
 20
1.897470980278919
 30
0.0
  0
LWPOLYLINE
  5
10A
330
1F
100
AcDbEntity
  8
0
  6
Continuous
 62
     7
370
    25
100
AcDbPolyline
 90
       50
 70
   128
 43
0.0
 10
306.7986532633
 20
14.0315364398
 10
306.2063309643
 20
14.4203957198
 10
305.7050092976
 20
14.8497888364
 10
305.3029199512
 20
15.3126651664
 10
305.0066652211
 20
15.8014242934
 10
304.8211096016
 20
16.3080408059
 10
304.749299911
 20
16.8241960748
 10
304.7924152623
 20
17.3414148449
 10
304.9497477028
 20
17.8512043984
 10
305.218713838
 20
18.3451940047
 10
305.5948972515
 20
18.8152723682
 10
306.072121022
 20
19.2537208153
 10
306.6425491484
 20
19.6533400344
 10
307.2968152167
 20
20.0075682892
 10
308.024176196
 20
20.3105891614
 10
308.8126888392
 20
20.5574270567
 10
309.6494057906
 20
20.7440289037
 10
310.5205881808
 20
20.8673307051
 10
311.4119312192
 20
20.925307849
 10
312.3087990777
 20
20.917008352
 10
313.1964652109
 20
20.8425684918
 10
314.0603541653
 20
20.7032105688
 10
314.8862809082
 20
20.5012228363
 10
315.6606837454
 20
20.2399219271
 10
316.3708470037
 20
19.9235983951
 10
317.005109822
 20
19.5574462639
 10
317.5530576224
 20
19.1474777413
 10
318.005693117
 20
18.7004244992
 10
318.3555840437
 20
18.2236271394
 10
318.5969852031
 20
17.7249146614
 10
318.7259327948
 20
17.2124759103
 10
318.740309503
 20
16.6947251163
 10
318.6398792624
 20
16.1801637329
 10
318.4262911348
 20
15.6772408441
 10
318.1030522315
 20
15.1942144295
 10
317.6754701262
 20
14.7390157698
 10
317.1505657053
 20
14.3191192142
 10
316.5369578849
 20
13.9414194525
 10
315.8447220884
 20
13.6121183045
 10
315.0852248085
 20
13.3366228859
 10
314.2709369695
 20
13.1194568238
 10
313.4152291552
 20
12.964185979
 10
312.5321520643
 20
12.8733598944
 10
311.6362057982
 20
12.8484699318
 10
310.7421017698
 20
12.8899247839
 10
309.8645211425
 20
12.9970437629
 10
309.0178737659
 20
13.1680679783
 10
308.2160615667
 20
13.4001892171
 10
307.4722502789
 20
13.689596055
 10
306.7986532633
 20
14.0315364398
  0
LWPOLYLINE
  5
10B
330
1F
100
AcDbEntity
  8
0
  6
Continuous
 62
     7
370
    25
100
AcDbPolyline
 90
       43
 70
   128
 43
0.0
 10
308.2128668257
 20
14.8479445517
 10
307.7254118328
 20
15.1749393496
 10
307.3278237641
 20
15.5402226445
 10
307.02898408
 20
15.9356346111
 10
306.8355683654
 20
16.3523423995
 10
306.7518972076
 20
16.7810374462
 10
306.7798396821
 20
17.2121434124
 10
306.9187716001
 20
17.6360301032
 10
307.1655894522
 20
18.0432285902
 10
307.5147797354
 20
18.4246427323
 10
307.9585421159
 20
18.7717523676
 10
308.4869636752
 20
19.0768036406
 10
309.088240349
 20
19.3329822099
 10
309.74894061
 20
19.5345654696
 10
310.4543055061
 20
19.6770503827
 10
311.1885783511
 20
19.7572540718
 10
311.935356703
 20
19.773384919
 10
312.6779587674
 20
19.7250825878
 10
313.3997960414
 20
19.6134260724
 10
314.084743873
 20
19.4409095949
 10
314.7175016595
 20
19.2113868884
 10
315.2839346375
 20
18.9299851108
 10
315.7713896304
 20
18.6029903128
 10
316.1689776991
 20
18.237707018
 10
316.4678173831
 20
17.8422950514
 10
316.6612330978
 20
17.425587263
 10
316.7449042555
 20
16.9968922162
 10
316.7169617811
 20
16.56578625
 10
316.578029863
 20
16.1418995593
 10
316.3312120109
 20
15.7347010722
 10
315.9820217277
 20
15.3532869302
 10
315.5382593473
 20
15.0061772948
 10
315.009837788
 20
14.7011260218
 10
314.4085611142
 20
14.4449474525
 10
313.7478608532
 20
14.2433641929
 10
313.0424959571
 20
14.1008792797
 10
312.3082231121
 20
14.0206755906
 10
311.5614447602
 20
14.0045447435
 10
310.8188426958
 20
14.0528470747
 10
310.0970054218
 20
14.1645035901
 10
309.4120575902
 20
14.3370200675
 10
308.7792998037
 20
14.5665427741
 10
308.2128668257
 20
14.8479445517
  0
LWPOLYLINE
  5
10C
330
1F
100
AcDbEntity
  8
0
  6
Continuous
 62
     1
370
    25
100
AcDbPolyline
 90
       61
 70
   128
 43
0.0
 10
255.0178987837
 20
-12.6079415702
 10
255.7845717591
 20
-12.3077874815
 10
256.9813902237
 20
-11.9382181116
 10
258.2246312736
 20
-11.6692317565
 10
259.5108872714
 20
-11.5015656892
 10
260.836632679
 20
-11.4356794706
 10
262.1982337202
 20
-11.4717536903
 10
263.5919583413
 20
-11.6096894714
 10
265.01398644
 20
-11.8491087415
 10
266.460420336
 20
-12.189355269
 10
267.9272954547
 20
-12.6294964619
 10
269.4105911932
 20
-13.1683259236
 10
270.9062419411
 20
-13.8043667602
 10
272.4101482236
 20
-14.5358756278
 10
273.9181879381
 20
-15.3608475116
 10
275.4262276527
 20
-16.2770212209
 10
276.9301339352
 20
-17.2818855873
 10
278.425784683
 20
-18.3726863474
 10
279.9090804216
 20
-19.5464336921
 10
281.3759555402
 20
-20.7999104616
 10
282.8223894363
 20
-22.1296809632
 10
284.2444175349
 20
-23.5321003883
 10
285.638142156
 20
-25.0033248027
 10
286.9997431972
 20
-26.5393216827
 10
288.3254886048
 20
-28.1358809676
 10
289.6117446027
 20
-29.7886265992
 10
290.8549856525
 20
-31.4930285168
 10
292.0518041172
 20
-33.2444150731
 10
293.1989196003
 20
-35.0379858394
 10
294.2931879381
 20
-36.8688247628
 10
295.3316098172
 20
-38.731913641
 10
296.3113389953
 20
-40.6221458771
 10
297.2296901029
 20
-42.5343404757
 10
298.0841460035
 20
-44.4632562445
 10
298.8723646927
 20
-46.4036061594
 10
299.592185718
 20
-48.3500718561
 10
300.2416361
 20
-50.2973182075
 10
300.8189357402
 20
-52.2400079466
 10
301.3225023006
 20
-54.172816296
 10
301.7509555402
 20
-56.0904455623
 10
302.1031210984
 20
-57.9876396569
 10
302.378033714
 20
-59.8591985027
 10
302.5749398704
 20
-61.6999922871
 10
302.6932998618
 20
-63.5049755221
 10
302.7327892715
 20
-65.2692008743
 10
302.6932998618
 20
-66.9878327245
 10
302.5749398704
 20
-68.6561604224
 10
302.378033714
 20
-70.2696111976
 10
302.1031210984
 20
-71.8237626938
 10
301.7509555402
 20
-73.3143550896
 10
301.3225023006
 20
-74.7373027751
 10
300.8189357402
 20
-76.0887055494
 10
300.2416361
 20
-77.3648593115
 10
299.592185718
 20
-78.5622662126
 10
298.8723646927
 20
-79.6776442437
 10
298.0841460035
 20
-80.7079362311
 10
297.2296901029
 20
-81.6503182161
 10
296.3113389953
 20
-82.5022071952
 10
295.3316098172
 20
-83.2612681998
 10
294.2931879381
 20
-83.9254206966
 10
294.2915297979
 20
-83.9263780759
  0
LWPOLYLINE
  5
10D
330
1F
100
AcDbEntity
  8
0
  6
Continuous
 62
     1
370
    25
100
AcDbPolyline
 90
       62
 70
   128
 43
0.0
 10
271.2225132903
 20
-3.1382930561
 10
272.3151258056
 20
-2.5718255044
 10
273.4622412887
 20
-2.1026860837
 10
274.6590597533
 20
-1.7331167138
 10
275.9023008032
 20
-1.4641303587
 10
277.1885568011
 20
-1.2964642914
 10
278.5143022087
 20
-1.2305780728
 10
279.8759032499
 20
-1.2666522926
 10
281.269627871
 20
-1.4045880737
 10
282.6916559696
 20
-1.6440073438
 10
284.1380898657
 20
-1.9842538713
 10
285.6049649843
 20
-2.4243950641
 10
287.0882607228
 20
-2.9632245258
 10
288.5839114707
 20
-3.5992653624
 10
290.0878177532
 20
-4.33077423
 10
291.5958574678
 20
-5.1557461138
 10
293.1038971823
 20
-6.0719198231
 10
294.6078034648
 20
-7.0767841895
 10
296.1034542127
 20
-8.1675849496
 10
297.5867499512
 20
-9.3413322943
 10
299.0536250699
 20
-10.5948090638
 10
300.5000589659
 20
-11.9245795654
 10
301.9220870646
 20
-13.3269989905
 10
303.3158116857
 20
-14.798223405
 10
304.6774127269
 20
-16.334220285
 10
306.0031581345
 20
-17.9307795698
 10
307.2894141323
 20
-19.5835252015
 10
308.5326551822
 20
-21.287927119
 10
309.7294736468
 20
-23.0393136754
 10
310.8765891299
 20
-24.8328844416
 10
311.9708574678
 20
-26.663723365
 10
313.0092793468
 20
-28.5268122432
 10
313.989008525
 20
-30.4170444793
 10
314.9073596326
 20
-32.3292390779
 10
315.7618155331
 20
-34.2581548467
 10
316.5500342224
 20
-36.1985047616
 10
317.2698552477
 20
-38.1449704583
 10
317.9193056296
 20
-40.0922168097
 10
318.4966052699
 20
-42.0349065488
 10
319.0001718303
 20
-43.9677148982
 10
319.4286250699
 20
-45.8853441645
 10
319.7807906281
 20
-47.7825382591
 10
320.0557032436
 20
-49.6540971049
 10
320.2526094001
 20
-51.4948908893
 10
320.3709693914
 20
-53.2998741243
 10
320.4104588011
 20
-55.0640994765
 10
320.3709693914
 20
-56.7827313268
 10
320.2526094001
 20
-58.4510590246
 10
320.0557032436
 20
-60.0645097998
 10
319.7807906281
 20
-61.618661296
 10
319.4286250699
 20
-63.1092536919
 10
319.0001718303
 20
-64.5322013773
 10
318.4966052699
 20
-65.8836041516
 10
317.9193056296
 20
-67.1597579137
 10
317.2698552477
 20
-68.3571648148
 10
316.5500342224
 20
-69.4725428459
 10
315.7618155331
 20
-70.5028348334
 10
314.9073596326
 20
-71.4452168183
 10
313.989008525
 20
-72.2971057974
 10
313.0092793468
 20
-73.056166802
 10
311.9708574678
 20
-73.7203192988
 10
311.9692016452
 20
-73.7212753401
  0
ENDSEC
  0
SECTION
  2
OBJECTS
  0
DICTIONARY
  5
C
330
0
100
AcDbDictionary
281
     1
  3
ACAD_GROUP
350
D
  3
ACAD_LAYOUT
350
1A
  3
ACAD_MLINESTYLE
350
17
  3
ACAD_PLOTSETTINGS
350
19
  3
ACAD_PLOTSTYLENAME
350
E
  3
ACAD_SCALELIST
350
47
  3
DWGPROPS
350
10E
  0
DICTIONARY
  5
D
102
{ACAD_REACTORS
330
C
102
}
330
C
100
AcDbDictionary
281
     1
  0
DICTIONARY
  5
1A
102
{ACAD_REACTORS
330
C
102
}
330
C
100
AcDbDictionary
281
     1
  3
Layout1
350
1E
  3
Layout2
350
26
  3
Model
350
22
  0
DICTIONARY
  5
17
102
{ACAD_REACTORS
330
C
102
}
330
C
100
AcDbDictionary
281
     1
  3
Standard
350
18
  0
DICTIONARY
  5
19
102
{ACAD_REACTORS
330
C
102
}
330
C
100
AcDbDictionary
281
     1
  0
ACDBDICTIONARYWDFLT
  5
E
102
{ACAD_REACTORS
330
C
102
}
330
C
100
AcDbDictionary
281
     1
  3
Normal
350
F
100
AcDbDictionaryWithDefault
340
F
  0
DICTIONARY
  5
47
102
{ACAD_REACTORS
330
C
102
}
330
C
100
AcDbDictionary
281
     1
  3
A0
350
48
  3
A1
350
49
  3
A2
350
4A
  3
A3
350
4B
  3
A4
350
4C
  3
A5
350
4D
  3
A6
350
4E
  3
A7
350
4F
  3
A8
350
50
  3
A9
350
51
  3
B0
350
52
  3
B1
350
53
  3
B2
350
54
  3
B3
350
55
  3
B4
350
56
  3
B5
350
57
  3
B6
350
58
  3
B7
350
59
  3
B8
350
5A
  3
B9
350
5B
  3
C0
350
5C
  3
C1
350
5D
  3
C2
350
5E
  3
C3
350
5F
  3
C4
350
60
  3
C5
350
61
  3
C6
350
62
  3
C7
350
63
  3
C8
350
64
  3
C9
350
65
  3
D0
350
66
  3
D1
350
67
  3
D2
350
68
  0
XRECORD
  5
10E
102
{ACAD_REACTORS
330
C
102
}
330
C
100
AcDbXrecord
280
     1
  1
DWGPROPS COOKIE
  2

  3

  4

  6

  7

  8
b.kav
  9

300
=
301
=
302
=
303
=
304
=
305
=
306
=
307
=
308
=
309
=
 40
0.0
 41
2459954.239371783
 42
2459954.239372327
  1

 90
        0
  0
LAYOUT
  5
1E
102
{ACAD_REACTORS
330
1A
102
}
330
1A
100
AcDbPlotSettings
  1

  2
none_device
  4

  6

 40
0.0
 41
0.0
 42
0.0
 43
0.0
 44
0.0
 45
0.0
 46
0.0
 47
0.0
 48
0.0
 49
0.0
140
0.0
141
0.0
142
1.0
143
1.0
 70
   688
 72
     1
 73
     0
 74
     5
  7

 75
    16
147
1.0
148
0.0
149
0.0
100
AcDbLayout
  1
Layout1
 70
     1
 71
     1
 10
0.0
 20
0.0
 11
420.0
 21
297.0
 12
0.0
 22
0.0
 32
0.0
 14
1.0000000000E+20
 24
1.0000000000E+20
 34
1.0000000000E+20
 15
-1.0000000000E+20
 25
-1.0000000000E+20
 35
-1.0000000000E+20
146
0.0
 13
0.0
 23
0.0
 33
0.0
 16
1.0
 26
0.0
 36
0.0
 17
0.0
 27
1.0
 37
0.0
 76
     0
330
1B
  0
LAYOUT
  5
26
102
{ACAD_REACTORS
330
1A
102
}
330
1A
100
AcDbPlotSettings
  1

  2
none_device
  4

  6

 40
0.0
 41
0.0
 42
0.0
 43
0.0
 44
0.0
 45
0.0
 46
0.0
 47
0.0
 48
0.0
 49
0.0
140
0.0
141
0.0
142
1.0
143
1.0
 70
   688
 72
     1
 73
     0
 74
     5
  7

 75
    16
147
1.0
148
0.0
149
0.0
100
AcDbLayout
  1
Layout2
 70
     1
 71
     2
 10
0.0
 20
0.0
 11
0.0
 21
0.0
 12
0.0
 22
0.0
 32
0.0
 14
0.0
 24
0.0
 34
0.0
 15
0.0
 25
0.0
 35
0.0
146
0.0
 13
0.0
 23
0.0
 33
0.0
 16
1.0
 26
0.0
 36
0.0
 17
0.0
 27
1.0
 37
0.0
 76
     0
330
23
  0
LAYOUT
  5
22
102
{ACAD_REACTORS
330
1A
102
}
330
1A
100
AcDbPlotSettings
  1

  2
none_device
  4
Letter_(8.50_x_11.00_Inches)
  6

 40
6.35
 41
6.35
 42
6.35000508
 43
6.35000508
 44
215.9
 45
279.4
 46
0.0
 47
0.0
 48
0.0
 49
0.0
140
0.0
141
0.0
142
1.0
143
1.0
 70
  1712
 72
     1
 73
     0
 74
     0
  7

 75
     0
147
1.0
148
0.0
149
0.0
100
AcDbLayout
  1
Model
 70
     1
 71
     0
 10
0.0
 20
0.0
 11
279.4
 21
215.9
 12
0.0
 22
0.0
 32
0.0
 14
0.0
 24
0.0
 34
0.0
 15
279.4
 25
215.9
 35
0.0
146
0.0
 13
0.0
 23
0.0
 33
0.0
 16
1.0
 26
0.0
 36
0.0
 17
0.0
 27
1.0
 37
0.0
 76
     0
330
1F
331
29
  0
MLINESTYLE
  5
18
102
{ACAD_REACTORS
330
17
102
}
330
17
100
AcDbMlineStyle
  2
Standard
 70
     0
  3

 62
   256
 51
90.0
 52
90.0
 71
     2
 49
0.5
 62
   256
  6
BYLAYER
 49
-0.5
 62
   256
  6
BYLAYER
  0
ACDBPLACEHOLDER
  5
F
102
{ACAD_REACTORS
330
E
102
}
330
E
  0
SCALE
  5
48
102
{ACAD_REACTORS
330
47
102
}
330
47
100
AcDbScale
 70
     0
300
1:1
140
1.0
141
1.0
290
     1
  0
SCALE
  5
49
102
{ACAD_REACTORS
330
47
102
}
330
47
100
AcDbScale
 70
     0
300
1:2
140
1.0
141
2.0
290
     0
  0
SCALE
  5
4A
102
{ACAD_REACTORS
330
47
102
}
330
47
100
AcDbScale
 70
     0
300
1:4
140
1.0
141
4.0
290
     0
  0
SCALE
  5
4B
102
{ACAD_REACTORS
330
47
102
}
330
47
100
AcDbScale
 70
     0
300
1:5
140
1.0
141
5.0
290
     0
  0
SCALE
  5
4C
102
{ACAD_REACTORS
330
47
102
}
330
47
100
AcDbScale
 70
     0
300
1:8
140
1.0
141
8.0
290
     0
  0
SCALE
  5
4D
102
{ACAD_REACTORS
330
47
102
}
330
47
100
AcDbScale
 70
     0
300
1:10
140
1.0
141
10.0
290
     0
  0
SCALE
  5
4E
102
{ACAD_REACTORS
330
47
102
}
330
47
100
AcDbScale
 70
     0
300
1:16
140
1.0
141
16.0
290
     0
  0
SCALE
  5
4F
102
{ACAD_REACTORS
330
47
102
}
330
47
100
AcDbScale
 70
     0
300
1:20
140
1.0
141
20.0
290
     0
  0
SCALE
  5
50
102
{ACAD_REACTORS
330
47
102
}
330
47
100
AcDbScale
 70
     0
300
1:30
140
1.0
141
30.0
290
     0
  0
SCALE
  5
51
102
{ACAD_REACTORS
330
47
102
}
330
47
100
AcDbScale
 70
     0
300
1:40
140
1.0
141
40.0
290
     0
  0
SCALE
  5
52
102
{ACAD_REACTORS
330
47
102
}
330
47
100
AcDbScale
 70
     0
300
1:50
140
1.0
141
50.0
290
     0
  0
SCALE
  5
53
102
{ACAD_REACTORS
330
47
102
}
330
47
100
AcDbScale
 70
     0
300
1:100
140
1.0
141
100.0
290
     0
  0
SCALE
  5
54
102
{ACAD_REACTORS
330
47
102
}
330
47
100
AcDbScale
 70
     0
300
2:1
140
2.0
141
1.0
290
     0
  0
SCALE
  5
55
102
{ACAD_REACTORS
330
47
102
}
330
47
100
AcDbScale
 70
     0
300
4:1
140
4.0
141
1.0
290
     0
  0
SCALE
  5
56
102
{ACAD_REACTORS
330
47
102
}
330
47
100
AcDbScale
 70
     0
300
8:1
140
8.0
141
1.0
290
     0
  0
SCALE
  5
57
102
{ACAD_REACTORS
330
47
102
}
330
47
100
AcDbScale
 70
     0
300
10:1
140
10.0
141
1.0
290
     0
  0
SCALE
  5
58
102
{ACAD_REACTORS
330
47
102
}
330
47
100
AcDbScale
 70
     0
300
100:1
140
100.0
141
1.0
290
     0
  0
SCALE
  5
59
102
{ACAD_REACTORS
330
47
102
}
330
47
100
AcDbScale
 70
     0
300
1/128" = 1'-0"
140
0.0078125
141
12.0
290
     0
  0
SCALE
  5
5A
102
{ACAD_REACTORS
330
47
102
}
330
47
100
AcDbScale
 70
     0
300
1/64" = 1'-0"
140
0.015625
141
12.0
290
     0
  0
SCALE
  5
5B
102
{ACAD_REACTORS
330
47
102
}
330
47
100
AcDbScale
 70
     0
300
1/32" = 1'-0"
140
0.03125
141
12.0
290
     0
  0
SCALE
  5
5C
102
{ACAD_REACTORS
330
47
102
}
330
47
100
AcDbScale
 70
     0
300
1/16" = 1'-0"
140
0.0625
141
12.0
290
     0
  0
SCALE
  5
5D
102
{ACAD_REACTORS
330
47
102
}
330
47
100
AcDbScale
 70
     0
300
3/32" = 1'-0"
140
0.09375
141
12.0
290
     0
  0
SCALE
  5
5E
102
{ACAD_REACTORS
330
47
102
}
330
47
100
AcDbScale
 70
     0
300
1/8" = 1'-0"
140
0.125
141
12.0
290
     0
  0
SCALE
  5
5F
102
{ACAD_REACTORS
330
47
102
}
330
47
100
AcDbScale
 70
     0
300
3/16" = 1'-0"
140
0.1875
141
12.0
290
     0
  0
SCALE
  5
60
102
{ACAD_REACTORS
330
47
102
}
330
47
100
AcDbScale
 70
     0
300
1/4" = 1'-0"
140
0.25
141
12.0
290
     0
  0
SCALE
  5
61
102
{ACAD_REACTORS
330
47
102
}
330
47
100
AcDbScale
 70
     0
300
3/8" = 1'-0"
140
0.375
141
12.0
290
     0
  0
SCALE
  5
62
102
{ACAD_REACTORS
330
47
102
}
330
47
100
AcDbScale
 70
     0
300
1/2" = 1'-0"
140
0.5
141
12.0
290
     0
  0
SCALE
  5
63
102
{ACAD_REACTORS
330
47
102
}
330
47
100
AcDbScale
 70
     0
300
3/4" = 1'-0"
140
0.75
141
12.0
290
     0
  0
SCALE
  5
64
102
{ACAD_REACTORS
330
47
102
}
330
47
100
AcDbScale
 70
     0
300
1" = 1'-0"
140
1.0
141
12.0
290
     0
  0
SCALE
  5
65
102
{ACAD_REACTORS
330
47
102
}
330
47
100
AcDbScale
 70
     0
300
1-1/2" = 1'-0"
140
1.5
141
12.0
290
     0
  0
SCALE
  5
66
102
{ACAD_REACTORS
330
47
102
}
330
47
100
AcDbScale
 70
     0
300
3" = 1'-0"
140
3.0
141
12.0
290
     0
  0
SCALE
  5
67
102
{ACAD_REACTORS
330
47
102
}
330
47
100
AcDbScale
 70
     0
300
6" = 1'-0"
140
6.0
141
12.0
290
     0
  0
SCALE
  5
68
102
{ACAD_REACTORS
330
47
102
}
330
47
100
AcDbScale
 70
     0
300
1'-0" = 1'-0"
140
12.0
141
12.0
290
     0
  0
ENDSEC
  0
EOF
